ISO-10303-21;
HEADER;
FILE_DESCRIPTION((''),'2;1');
FILE_NAME('234661_SM01_ASM','2023-06-14T13:40:41',('banengservice'),(
'BANNER ENGINEERING'),'CREO PARAMETRIC BY PTC INC, 2022414',
'CREO PARAMETRIC BY PTC INC, 2022414','');
FILE_SCHEMA(('CONFIG_CONTROL_DESIGN'));
ENDSEC;
DATA;
#1=CARTESIAN_POINT('',(7.E0,3.3E0,0.E0));
#2=DIRECTION('',(0.E0,0.E0,-1.E0));
#3=DIRECTION('',(0.E0,1.E0,0.E0));
#4=AXIS2_PLACEMENT_3D('',#1,#2,#3);
#6=DIRECTION('',(-1.E0,0.E0,0.E0));
#7=VECTOR('',#6,1.4E1);
#8=CARTESIAN_POINT('',(7.E0,3.8E0,0.E0));
#9=LINE('',#8,#7);
#10=CARTESIAN_POINT('',(-7.E0,3.3E0,0.E0));
#11=DIRECTION('',(0.E0,0.E0,-1.E0));
#12=DIRECTION('',(-1.E0,0.E0,0.E0));
#13=AXIS2_PLACEMENT_3D('',#10,#11,#12);
#15=DIRECTION('',(0.E0,-1.E0,0.E0));
#16=VECTOR('',#15,3.3E0);
#17=CARTESIAN_POINT('',(-7.5E0,3.3E0,0.E0));
#18=LINE('',#17,#16);
#19=DIRECTION('',(-1.E0,0.E0,0.E0));
#20=VECTOR('',#19,3.E0);
#21=CARTESIAN_POINT('',(-7.5E0,0.E0,0.E0));
#22=LINE('',#21,#20);
#23=DIRECTION('',(0.E0,1.E0,0.E0));
#24=VECTOR('',#23,1.7E0);
#25=CARTESIAN_POINT('',(-1.05E1,-1.7E0,0.E0));
#26=LINE('',#25,#24);
#27=DIRECTION('',(1.E0,0.E0,0.E0));
#28=VECTOR('',#27,4.5E0);
#29=CARTESIAN_POINT('',(-1.05E1,-1.7E0,0.E0));
#30=LINE('',#29,#28);
#31=DIRECTION('',(0.E0,1.E0,0.E0));
#32=VECTOR('',#31,4.E0);
#33=CARTESIAN_POINT('',(-6.E0,-1.7E0,0.E0));
#34=LINE('',#33,#32);
#35=DIRECTION('',(1.E0,0.E0,0.E0));
#36=VECTOR('',#35,1.2E1);
#37=CARTESIAN_POINT('',(-6.E0,2.3E0,0.E0));
#38=LINE('',#37,#36);
#39=DIRECTION('',(0.E0,-1.E0,0.E0));
#40=VECTOR('',#39,4.E0);
#41=CARTESIAN_POINT('',(6.E0,2.3E0,0.E0));
#42=LINE('',#41,#40);
#43=DIRECTION('',(1.E0,0.E0,0.E0));
#44=VECTOR('',#43,4.5E0);
#45=CARTESIAN_POINT('',(6.E0,-1.7E0,0.E0));
#46=LINE('',#45,#44);
#47=DIRECTION('',(0.E0,-1.E0,0.E0));
#48=VECTOR('',#47,1.7E0);
#49=CARTESIAN_POINT('',(1.05E1,0.E0,0.E0));
#50=LINE('',#49,#48);
#51=DIRECTION('',(-1.E0,0.E0,0.E0));
#52=VECTOR('',#51,3.E0);
#53=CARTESIAN_POINT('',(1.05E1,0.E0,0.E0));
#54=LINE('',#53,#52);
#55=DIRECTION('',(0.E0,1.E0,0.E0));
#56=VECTOR('',#55,3.3E0);
#57=CARTESIAN_POINT('',(7.5E0,0.E0,0.E0));
#58=LINE('',#57,#56);
#59=DIRECTION('',(0.E0,0.E0,-1.E0));
#60=VECTOR('',#59,6.E0);
#61=CARTESIAN_POINT('',(7.5E0,3.3E0,6.E0));
#62=LINE('',#61,#60);
#63=DIRECTION('',(0.E0,0.E0,1.E0));
#64=VECTOR('',#63,6.E0);
#65=CARTESIAN_POINT('',(7.5E0,0.E0,0.E0));
#66=LINE('',#65,#64);
#67=CARTESIAN_POINT('',(1.1E1,0.E0,3.E0));
#68=DIRECTION('',(0.E0,1.E0,0.E0));
#69=DIRECTION('',(1.E0,0.E0,0.E0));
#70=AXIS2_PLACEMENT_3D('',#67,#68,#69);
#72=CARTESIAN_POINT('',(1.1E1,0.E0,3.E0));
#73=DIRECTION('',(0.E0,1.E0,0.E0));
#74=DIRECTION('',(-1.E0,0.E0,0.E0));
#75=AXIS2_PLACEMENT_3D('',#72,#73,#74);
#77=CARTESIAN_POINT('',(1.05E1,0.E0,3.E0));
#78=DIRECTION('',(0.E0,-1.E0,0.E0));
#79=DIRECTION('',(0.E0,0.E0,-1.E0));
#80=AXIS2_PLACEMENT_3D('',#77,#78,#79);
#82=DIRECTION('',(0.E0,-1.E0,0.E0));
#83=VECTOR('',#82,1.7E0);
#84=CARTESIAN_POINT('',(1.2E1,0.E0,3.E0));
#85=LINE('',#84,#83);
#86=CARTESIAN_POINT('',(1.1E1,-1.7E0,3.E0));
#87=DIRECTION('',(0.E0,1.E0,0.E0));
#88=DIRECTION('',(1.E0,0.E0,0.E0));
#89=AXIS2_PLACEMENT_3D('',#86,#87,#88);
#91=CARTESIAN_POINT('',(1.1E1,-1.7E0,3.E0));
#92=DIRECTION('',(0.E0,1.E0,0.E0));
#93=DIRECTION('',(-1.E0,0.E0,0.E0));
#94=AXIS2_PLACEMENT_3D('',#91,#92,#93);
#96=CARTESIAN_POINT('',(1.05E1,-1.7E0,3.E0));
#97=DIRECTION('',(0.E0,1.E0,0.E0));
#98=DIRECTION('',(0.E0,0.E0,1.E0));
#99=AXIS2_PLACEMENT_3D('',#96,#97,#98);
#101=DIRECTION('',(0.E0,0.E0,1.E0));
#102=VECTOR('',#101,6.E0);
#103=CARTESIAN_POINT('',(6.E0,-1.7E0,0.E0));
#104=LINE('',#103,#102);
#105=DIRECTION('',(0.E0,-1.E0,0.E0));
#106=VECTOR('',#105,1.7E0);
#107=CARTESIAN_POINT('',(1.E1,0.E0,3.E0));
#108=LINE('',#107,#106);
#109=CARTESIAN_POINT('',(7.E0,3.3E0,6.E0));
#110=DIRECTION('',(0.E0,0.E0,1.E0));
#111=DIRECTION('',(1.E0,0.E0,0.E0));
#112=AXIS2_PLACEMENT_3D('',#109,#110,#111);
#114=DIRECTION('',(0.E0,1.E0,0.E0));
#115=VECTOR('',#114,3.3E0);
#116=CARTESIAN_POINT('',(7.5E0,0.E0,6.E0));
#117=LINE('',#116,#115);
#118=DIRECTION('',(-1.E0,0.E0,0.E0));
#119=VECTOR('',#118,3.E0);
#120=CARTESIAN_POINT('',(1.05E1,0.E0,6.E0));
#121=LINE('',#120,#119);
#122=DIRECTION('',(0.E0,1.E0,0.E0));
#123=VECTOR('',#122,1.7E0);
#124=CARTESIAN_POINT('',(1.05E1,-1.7E0,6.E0));
#125=LINE('',#124,#123);
#126=DIRECTION('',(1.E0,0.E0,0.E0));
#127=VECTOR('',#126,4.5E0);
#128=CARTESIAN_POINT('',(6.E0,-1.7E0,6.E0));
#129=LINE('',#128,#127);
#130=DIRECTION('',(0.E0,-1.E0,0.E0));
#131=VECTOR('',#130,4.E0);
#132=CARTESIAN_POINT('',(6.E0,2.3E0,6.E0));
#133=LINE('',#132,#131);
#134=DIRECTION('',(1.E0,0.E0,0.E0));
#135=VECTOR('',#134,1.2E1);
#136=CARTESIAN_POINT('',(-6.E0,2.3E0,6.E0));
#137=LINE('',#136,#135);
#138=DIRECTION('',(0.E0,1.E0,0.E0));
#139=VECTOR('',#138,4.E0);
#140=CARTESIAN_POINT('',(-6.E0,-1.7E0,6.E0));
#141=LINE('',#140,#139);
#142=DIRECTION('',(1.E0,0.E0,0.E0));
#143=VECTOR('',#142,4.5E0);
#144=CARTESIAN_POINT('',(-1.05E1,-1.7E0,6.E0));
#145=LINE('',#144,#143);
#146=DIRECTION('',(0.E0,-1.E0,0.E0));
#147=VECTOR('',#146,1.7E0);
#148=CARTESIAN_POINT('',(-1.05E1,0.E0,6.E0));
#149=LINE('',#148,#147);
#150=DIRECTION('',(-1.E0,0.E0,0.E0));
#151=VECTOR('',#150,3.E0);
#152=CARTESIAN_POINT('',(-7.5E0,0.E0,6.E0));
#153=LINE('',#152,#151);
#154=DIRECTION('',(0.E0,-1.E0,0.E0));
#155=VECTOR('',#154,3.3E0);
#156=CARTESIAN_POINT('',(-7.5E0,3.3E0,6.E0));
#157=LINE('',#156,#155);
#158=CARTESIAN_POINT('',(-7.E0,3.3E0,6.E0));
#159=DIRECTION('',(0.E0,0.E0,1.E0));
#160=DIRECTION('',(0.E0,1.E0,0.E0));
#161=AXIS2_PLACEMENT_3D('',#158,#159,#160);
#163=DIRECTION('',(-1.E0,0.E0,0.E0));
#164=VECTOR('',#163,1.4E1);
#165=CARTESIAN_POINT('',(7.E0,3.8E0,6.E0));
#166=LINE('',#165,#164);
#167=DIRECTION('',(0.E0,0.E0,1.E0));
#168=VECTOR('',#167,6.E0);
#169=CARTESIAN_POINT('',(6.E0,2.3E0,0.E0));
#170=LINE('',#169,#168);
#171=DIRECTION('',(0.E0,0.E0,1.E0));
#172=VECTOR('',#171,6.E0);
#173=CARTESIAN_POINT('',(-6.E0,2.3E0,0.E0));
#174=LINE('',#173,#172);
#175=DIRECTION('',(0.E0,0.E0,1.E0));
#176=VECTOR('',#175,6.E0);
#177=CARTESIAN_POINT('',(-6.E0,-1.7E0,0.E0));
#178=LINE('',#177,#176);
#179=CARTESIAN_POINT('',(-1.1E1,-1.7E0,3.E0));
#180=DIRECTION('',(0.E0,1.E0,0.E0));
#181=DIRECTION('',(1.E0,0.E0,0.E0));
#182=AXIS2_PLACEMENT_3D('',#179,#180,#181);
#184=CARTESIAN_POINT('',(-1.1E1,-1.7E0,3.E0));
#185=DIRECTION('',(0.E0,1.E0,0.E0));
#186=DIRECTION('',(-1.E0,0.E0,0.E0));
#187=AXIS2_PLACEMENT_3D('',#184,#185,#186);
#189=CARTESIAN_POINT('',(-1.05E1,-1.7E0,3.E0));
#190=DIRECTION('',(0.E0,1.E0,0.E0));
#191=DIRECTION('',(0.E0,0.E0,-1.E0));
#192=AXIS2_PLACEMENT_3D('',#189,#190,#191);
#194=DIRECTION('',(0.E0,-1.E0,0.E0));
#195=VECTOR('',#194,1.7E0);
#196=CARTESIAN_POINT('',(-1.E1,0.E0,3.E0));
#197=LINE('',#196,#195);
#198=DIRECTION('',(0.E0,-1.E0,0.E0));
#199=VECTOR('',#198,1.7E0);
#200=CARTESIAN_POINT('',(-1.2E1,0.E0,3.E0));
#201=LINE('',#200,#199);
#202=CARTESIAN_POINT('',(-1.1E1,0.E0,3.E0));
#203=DIRECTION('',(0.E0,1.E0,0.E0));
#204=DIRECTION('',(1.E0,0.E0,0.E0));
#205=AXIS2_PLACEMENT_3D('',#202,#203,#204);
#207=CARTESIAN_POINT('',(-1.1E1,0.E0,3.E0));
#208=DIRECTION('',(0.E0,1.E0,0.E0));
#209=DIRECTION('',(-1.E0,0.E0,0.E0));
#210=AXIS2_PLACEMENT_3D('',#207,#208,#209);
#212=CARTESIAN_POINT('',(-1.05E1,0.E0,3.E0));
#213=DIRECTION('',(0.E0,-1.E0,0.E0));
#214=DIRECTION('',(0.E0,0.E0,1.E0));
#215=AXIS2_PLACEMENT_3D('',#212,#213,#214);
#217=DIRECTION('',(0.E0,0.E0,1.E0));
#218=VECTOR('',#217,6.E0);
#219=CARTESIAN_POINT('',(-7.5E0,0.E0,0.E0));
#220=LINE('',#219,#218);
#221=DIRECTION('',(0.E0,0.E0,-1.E0));
#222=VECTOR('',#221,6.E0);
#223=CARTESIAN_POINT('',(-7.5E0,3.3E0,6.E0));
#224=LINE('',#223,#222);
#225=DIRECTION('',(0.E0,0.E0,-1.E0));
#226=VECTOR('',#225,6.E0);
#227=CARTESIAN_POINT('',(7.E0,3.8E0,6.E0));
#228=LINE('',#227,#226);
#229=DIRECTION('',(0.E0,0.E0,-1.E0));
#230=VECTOR('',#229,6.E0);
#231=CARTESIAN_POINT('',(-7.E0,3.8E0,6.E0));
#232=LINE('',#231,#230);
#233=CARTESIAN_POINT('',(-6.E0,-1.7E0,0.E0));
#234=CARTESIAN_POINT('',(-6.E0,2.3E0,0.E0));
#235=VERTEX_POINT('',#233);
#236=VERTEX_POINT('',#234);
#237=CARTESIAN_POINT('',(6.E0,2.3E0,0.E0));
#238=VERTEX_POINT('',#237);
#239=CARTESIAN_POINT('',(6.E0,-1.7E0,0.E0));
#240=VERTEX_POINT('',#239);
#241=CARTESIAN_POINT('',(-6.E0,-1.7E0,6.E0));
#242=CARTESIAN_POINT('',(-6.E0,2.3E0,6.E0));
#243=VERTEX_POINT('',#241);
#244=VERTEX_POINT('',#242);
#245=CARTESIAN_POINT('',(6.E0,2.3E0,6.E0));
#246=VERTEX_POINT('',#245);
#247=CARTESIAN_POINT('',(6.E0,-1.7E0,6.E0));
#248=VERTEX_POINT('',#247);
#249=CARTESIAN_POINT('',(7.5E0,0.E0,0.E0));
#250=CARTESIAN_POINT('',(7.5E0,0.E0,6.E0));
#251=VERTEX_POINT('',#249);
#252=VERTEX_POINT('',#250);
#253=CARTESIAN_POINT('',(-7.5E0,0.E0,0.E0));
#254=CARTESIAN_POINT('',(-7.5E0,0.E0,6.E0));
#255=VERTEX_POINT('',#253);
#256=VERTEX_POINT('',#254);
#257=CARTESIAN_POINT('',(-1.E1,-1.7E0,3.E0));
#258=CARTESIAN_POINT('',(-1.2E1,-1.7E0,3.E0));
#259=VERTEX_POINT('',#257);
#260=VERTEX_POINT('',#258);
#261=CARTESIAN_POINT('',(1.2E1,-1.7E0,3.E0));
#262=CARTESIAN_POINT('',(1.E1,-1.7E0,3.E0));
#263=VERTEX_POINT('',#261);
#264=VERTEX_POINT('',#262);
#265=CARTESIAN_POINT('',(1.2E1,0.E0,3.E0));
#266=CARTESIAN_POINT('',(1.E1,0.E0,3.E0));
#267=VERTEX_POINT('',#265);
#268=VERTEX_POINT('',#266);
#269=CARTESIAN_POINT('',(-1.E1,0.E0,3.E0));
#270=CARTESIAN_POINT('',(-1.2E1,0.E0,3.E0));
#271=VERTEX_POINT('',#269);
#272=VERTEX_POINT('',#270);
#273=CARTESIAN_POINT('',(-1.05E1,-1.7E0,0.E0));
#274=CARTESIAN_POINT('',(-1.05E1,-1.7E0,6.E0));
#275=VERTEX_POINT('',#273);
#276=VERTEX_POINT('',#274);
#277=CARTESIAN_POINT('',(-1.05E1,0.E0,0.E0));
#278=VERTEX_POINT('',#277);
#279=CARTESIAN_POINT('',(-1.05E1,0.E0,6.E0));
#280=VERTEX_POINT('',#279);
#281=CARTESIAN_POINT('',(1.05E1,0.E0,0.E0));
#282=CARTESIAN_POINT('',(1.05E1,0.E0,6.E0));
#283=VERTEX_POINT('',#281);
#284=VERTEX_POINT('',#282);
#285=CARTESIAN_POINT('',(1.05E1,-1.7E0,0.E0));
#286=VERTEX_POINT('',#285);
#287=CARTESIAN_POINT('',(1.05E1,-1.7E0,6.E0));
#288=VERTEX_POINT('',#287);
#289=CARTESIAN_POINT('',(7.E0,3.8E0,0.E0));
#290=CARTESIAN_POINT('',(7.5E0,3.3E0,0.E0));
#291=VERTEX_POINT('',#289);
#292=VERTEX_POINT('',#290);
#293=CARTESIAN_POINT('',(7.5E0,3.3E0,6.E0));
#294=VERTEX_POINT('',#293);
#295=CARTESIAN_POINT('',(7.E0,3.8E0,6.E0));
#296=VERTEX_POINT('',#295);
#297=CARTESIAN_POINT('',(-7.5E0,3.3E0,0.E0));
#298=CARTESIAN_POINT('',(-7.E0,3.8E0,0.E0));
#299=VERTEX_POINT('',#297);
#300=VERTEX_POINT('',#298);
#301=CARTESIAN_POINT('',(-7.E0,3.8E0,6.E0));
#302=VERTEX_POINT('',#301);
#303=CARTESIAN_POINT('',(-7.5E0,3.3E0,6.E0));
#304=VERTEX_POINT('',#303);
#305=CARTESIAN_POINT('',(0.E0,0.E0,0.E0));
#306=DIRECTION('',(0.E0,0.E0,1.E0));
#307=DIRECTION('',(1.E0,0.E0,0.E0));
#308=AXIS2_PLACEMENT_3D('',#305,#306,#307);
#309=PLANE('',#308);
#311=ORIENTED_EDGE('',*,*,#310,.F.);
#313=ORIENTED_EDGE('',*,*,#312,.T.);
#315=ORIENTED_EDGE('',*,*,#314,.F.);
#317=ORIENTED_EDGE('',*,*,#316,.T.);
#319=ORIENTED_EDGE('',*,*,#318,.T.);
#321=ORIENTED_EDGE('',*,*,#320,.F.);
#323=ORIENTED_EDGE('',*,*,#322,.T.);
#325=ORIENTED_EDGE('',*,*,#324,.T.);
#327=ORIENTED_EDGE('',*,*,#326,.T.);
#329=ORIENTED_EDGE('',*,*,#328,.T.);
#331=ORIENTED_EDGE('',*,*,#330,.T.);
#333=ORIENTED_EDGE('',*,*,#332,.F.);
#335=ORIENTED_EDGE('',*,*,#334,.T.);
#337=ORIENTED_EDGE('',*,*,#336,.T.);
#338=EDGE_LOOP('',(#311,#313,#315,#317,#319,#321,#323,#325,#327,#329,#331,#333,
#335,#337));
#339=FACE_OUTER_BOUND('',#338,.F.);
#340=ADVANCED_FACE('',(#339),#309,.F.);
#341=CARTESIAN_POINT('',(7.E0,3.3E0,1.38216E1));
#342=DIRECTION('',(0.E0,0.E0,-1.E0));
#343=DIRECTION('',(0.E0,1.E0,0.E0));
#344=AXIS2_PLACEMENT_3D('',#341,#342,#343);
#345=CYLINDRICAL_SURFACE('',#344,5.E-1);
#346=ORIENTED_EDGE('',*,*,#310,.T.);
#348=ORIENTED_EDGE('',*,*,#347,.F.);
#350=ORIENTED_EDGE('',*,*,#349,.T.);
#352=ORIENTED_EDGE('',*,*,#351,.T.);
#353=EDGE_LOOP('',(#346,#348,#350,#352));
#354=FACE_OUTER_BOUND('',#353,.F.);
#355=ADVANCED_FACE('',(#354),#345,.T.);
#356=CARTESIAN_POINT('',(7.5E0,0.E0,0.E0));
#357=DIRECTION('',(1.E0,0.E0,0.E0));
#358=DIRECTION('',(0.E0,1.E0,0.E0));
#359=AXIS2_PLACEMENT_3D('',#356,#357,#358);
#360=PLANE('',#359);
#361=ORIENTED_EDGE('',*,*,#347,.T.);
#362=ORIENTED_EDGE('',*,*,#336,.F.);
#364=ORIENTED_EDGE('',*,*,#363,.T.);
#366=ORIENTED_EDGE('',*,*,#365,.T.);
#367=EDGE_LOOP('',(#361,#362,#364,#366));
#368=FACE_OUTER_BOUND('',#367,.F.);
#369=ADVANCED_FACE('',(#368),#360,.T.);
#370=CARTESIAN_POINT('',(1.35E1,0.E0,0.E0));
#371=DIRECTION('',(0.E0,1.E0,0.E0));
#372=DIRECTION('',(-1.E0,0.E0,0.E0));
#373=AXIS2_PLACEMENT_3D('',#370,#371,#372);
#374=PLANE('',#373);
#376=ORIENTED_EDGE('',*,*,#375,.T.);
#378=ORIENTED_EDGE('',*,*,#377,.T.);
#379=ORIENTED_EDGE('',*,*,#363,.F.);
#380=ORIENTED_EDGE('',*,*,#334,.F.);
#381=EDGE_LOOP('',(#376,#378,#379,#380));
#382=FACE_OUTER_BOUND('',#381,.F.);
#384=ORIENTED_EDGE('',*,*,#383,.T.);
#386=ORIENTED_EDGE('',*,*,#385,.T.);
#387=EDGE_LOOP('',(#384,#386));
#388=FACE_BOUND('',#387,.F.);
#389=ADVANCED_FACE('',(#382,#388),#374,.T.);
#390=CARTESIAN_POINT('',(1.1E1,0.E0,3.E0));
#391=DIRECTION('',(0.E0,1.E0,0.E0));
#392=DIRECTION('',(1.E0,0.E0,0.E0));
#393=AXIS2_PLACEMENT_3D('',#390,#391,#392);
#394=CYLINDRICAL_SURFACE('',#393,1.E0);
#396=ORIENTED_EDGE('',*,*,#395,.T.);
#398=ORIENTED_EDGE('',*,*,#397,.F.);
#399=ORIENTED_EDGE('',*,*,#383,.F.);
#401=ORIENTED_EDGE('',*,*,#400,.T.);
#402=EDGE_LOOP('',(#396,#398,#399,#401));
#403=FACE_OUTER_BOUND('',#402,.F.);
#404=ADVANCED_FACE('',(#403),#394,.F.);
#405=CARTESIAN_POINT('',(6.E0,-1.7E0,0.E0));
#406=DIRECTION('',(0.E0,-1.E0,0.E0));
#407=DIRECTION('',(1.E0,0.E0,0.E0));
#408=AXIS2_PLACEMENT_3D('',#405,#406,#407);
#409=PLANE('',#408);
#411=ORIENTED_EDGE('',*,*,#410,.T.);
#412=ORIENTED_EDGE('',*,*,#330,.F.);
#414=ORIENTED_EDGE('',*,*,#413,.T.);
#416=ORIENTED_EDGE('',*,*,#415,.T.);
#417=EDGE_LOOP('',(#411,#412,#414,#416));
#418=FACE_OUTER_BOUND('',#417,.F.);
#419=ORIENTED_EDGE('',*,*,#395,.F.);
#421=ORIENTED_EDGE('',*,*,#420,.F.);
#422=EDGE_LOOP('',(#419,#421));
#423=FACE_BOUND('',#422,.F.);
#424=ADVANCED_FACE('',(#418,#423),#409,.T.);
#425=CARTESIAN_POINT('',(1.1E1,0.E0,3.E0));
#426=DIRECTION('',(0.E0,1.E0,0.E0));
#427=DIRECTION('',(1.E0,0.E0,0.E0));
#428=AXIS2_PLACEMENT_3D('',#425,#426,#427);
#429=CYLINDRICAL_SURFACE('',#428,1.E0);
#430=ORIENTED_EDGE('',*,*,#420,.T.);
#431=ORIENTED_EDGE('',*,*,#400,.F.);
#432=ORIENTED_EDGE('',*,*,#385,.F.);
#433=ORIENTED_EDGE('',*,*,#397,.T.);
#434=EDGE_LOOP('',(#430,#431,#432,#433));
#435=FACE_OUTER_BOUND('',#434,.F.);
#436=ADVANCED_FACE('',(#435),#429,.F.);
#437=CARTESIAN_POINT('',(1.05E1,-8.8698E0,3.E0));
#438=DIRECTION('',(0.E0,1.E0,0.E0));
#439=DIRECTION('',(0.E0,0.E0,1.E0));
#440=AXIS2_PLACEMENT_3D('',#437,#438,#439);
#441=CYLINDRICAL_SURFACE('',#440,3.E0);
#442=ORIENTED_EDGE('',*,*,#375,.F.);
#443=ORIENTED_EDGE('',*,*,#332,.T.);
#444=ORIENTED_EDGE('',*,*,#410,.F.);
#446=ORIENTED_EDGE('',*,*,#445,.T.);
#447=EDGE_LOOP('',(#442,#443,#444,#446));
#448=FACE_OUTER_BOUND('',#447,.F.);
#449=ADVANCED_FACE('',(#448),#441,.T.);
#450=CARTESIAN_POINT('',(0.E0,0.E0,6.E0));
#451=DIRECTION('',(0.E0,0.E0,1.E0));
#452=DIRECTION('',(1.E0,0.E0,0.E0));
#453=AXIS2_PLACEMENT_3D('',#450,#451,#452);
#454=PLANE('',#453);
#455=ORIENTED_EDGE('',*,*,#349,.F.);
#456=ORIENTED_EDGE('',*,*,#365,.F.);
#457=ORIENTED_EDGE('',*,*,#377,.F.);
#458=ORIENTED_EDGE('',*,*,#445,.F.);
#459=ORIENTED_EDGE('',*,*,#415,.F.);
#461=ORIENTED_EDGE('',*,*,#460,.F.);
#463=ORIENTED_EDGE('',*,*,#462,.F.);
#465=ORIENTED_EDGE('',*,*,#464,.F.);
#467=ORIENTED_EDGE('',*,*,#466,.F.);
#469=ORIENTED_EDGE('',*,*,#468,.F.);
#471=ORIENTED_EDGE('',*,*,#470,.F.);
#473=ORIENTED_EDGE('',*,*,#472,.F.);
#475=ORIENTED_EDGE('',*,*,#474,.F.);
#477=ORIENTED_EDGE('',*,*,#476,.F.);
#478=EDGE_LOOP('',(#455,#456,#457,#458,#459,#461,#463,#465,#467,#469,#471,#473,
#475,#477));
#479=FACE_OUTER_BOUND('',#478,.F.);
#480=ADVANCED_FACE('',(#479),#454,.T.);
#481=CARTESIAN_POINT('',(6.E0,2.3E0,0.E0));
#482=DIRECTION('',(-1.E0,0.E0,0.E0));
#483=DIRECTION('',(0.E0,-1.E0,0.E0));
#484=AXIS2_PLACEMENT_3D('',#481,#482,#483);
#485=PLANE('',#484);
#486=ORIENTED_EDGE('',*,*,#328,.F.);
#488=ORIENTED_EDGE('',*,*,#487,.T.);
#489=ORIENTED_EDGE('',*,*,#460,.T.);
#490=ORIENTED_EDGE('',*,*,#413,.F.);
#491=EDGE_LOOP('',(#486,#488,#489,#490));
#492=FACE_OUTER_BOUND('',#491,.F.);
#493=ADVANCED_FACE('',(#492),#485,.T.);
#494=CARTESIAN_POINT('',(-6.E0,2.3E0,0.E0));
#495=DIRECTION('',(0.E0,-1.E0,0.E0));
#496=DIRECTION('',(1.E0,0.E0,0.E0));
#497=AXIS2_PLACEMENT_3D('',#494,#495,#496);
#498=PLANE('',#497);
#499=ORIENTED_EDGE('',*,*,#326,.F.);
#501=ORIENTED_EDGE('',*,*,#500,.T.);
#502=ORIENTED_EDGE('',*,*,#462,.T.);
#503=ORIENTED_EDGE('',*,*,#487,.F.);
#504=EDGE_LOOP('',(#499,#501,#502,#503));
#505=FACE_OUTER_BOUND('',#504,.F.);
#506=ADVANCED_FACE('',(#505),#498,.T.);
#507=CARTESIAN_POINT('',(-6.E0,-1.7E0,0.E0));
#508=DIRECTION('',(1.E0,0.E0,0.E0));
#509=DIRECTION('',(0.E0,1.E0,0.E0));
#510=AXIS2_PLACEMENT_3D('',#507,#508,#509);
#511=PLANE('',#510);
#512=ORIENTED_EDGE('',*,*,#324,.F.);
#514=ORIENTED_EDGE('',*,*,#513,.T.);
#515=ORIENTED_EDGE('',*,*,#464,.T.);
#516=ORIENTED_EDGE('',*,*,#500,.F.);
#517=EDGE_LOOP('',(#512,#514,#515,#516));
#518=FACE_OUTER_BOUND('',#517,.F.);
#519=ADVANCED_FACE('',(#518),#511,.T.);
#520=CARTESIAN_POINT('',(-1.35E1,-1.7E0,0.E0));
#521=DIRECTION('',(0.E0,-1.E0,0.E0));
#522=DIRECTION('',(1.E0,0.E0,0.E0));
#523=AXIS2_PLACEMENT_3D('',#520,#521,#522);
#524=PLANE('',#523);
#526=ORIENTED_EDGE('',*,*,#525,.T.);
#527=ORIENTED_EDGE('',*,*,#466,.T.);
#528=ORIENTED_EDGE('',*,*,#513,.F.);
#529=ORIENTED_EDGE('',*,*,#322,.F.);
#530=EDGE_LOOP('',(#526,#527,#528,#529));
#531=FACE_OUTER_BOUND('',#530,.F.);
#533=ORIENTED_EDGE('',*,*,#532,.F.);
#535=ORIENTED_EDGE('',*,*,#534,.F.);
#536=EDGE_LOOP('',(#533,#535));
#537=FACE_BOUND('',#536,.F.);
#538=ADVANCED_FACE('',(#531,#537),#524,.T.);
#539=CARTESIAN_POINT('',(-1.1E1,0.E0,3.E0));
#540=DIRECTION('',(0.E0,1.E0,0.E0));
#541=DIRECTION('',(1.E0,0.E0,0.E0));
#542=AXIS2_PLACEMENT_3D('',#539,#540,#541);
#543=CYLINDRICAL_SURFACE('',#542,1.E0);
#544=ORIENTED_EDGE('',*,*,#532,.T.);
#546=ORIENTED_EDGE('',*,*,#545,.F.);
#548=ORIENTED_EDGE('',*,*,#547,.F.);
#550=ORIENTED_EDGE('',*,*,#549,.T.);
#551=EDGE_LOOP('',(#544,#546,#548,#550));
#552=FACE_OUTER_BOUND('',#551,.F.);
#553=ADVANCED_FACE('',(#552),#543,.F.);
#554=CARTESIAN_POINT('',(-1.1E1,0.E0,3.E0));
#555=DIRECTION('',(0.E0,1.E0,0.E0));
#556=DIRECTION('',(1.E0,0.E0,0.E0));
#557=AXIS2_PLACEMENT_3D('',#554,#555,#556);
#558=CYLINDRICAL_SURFACE('',#557,1.E0);
#559=ORIENTED_EDGE('',*,*,#534,.T.);
#560=ORIENTED_EDGE('',*,*,#549,.F.);
#562=ORIENTED_EDGE('',*,*,#561,.F.);
#563=ORIENTED_EDGE('',*,*,#545,.T.);
#564=EDGE_LOOP('',(#559,#560,#562,#563));
#565=FACE_OUTER_BOUND('',#564,.F.);
#566=ADVANCED_FACE('',(#565),#558,.F.);
#567=CARTESIAN_POINT('',(-7.5E0,0.E0,0.E0));
#568=DIRECTION('',(0.E0,1.E0,0.E0));
#569=DIRECTION('',(-1.E0,0.E0,0.E0));
#570=AXIS2_PLACEMENT_3D('',#567,#568,#569);
#571=PLANE('',#570);
#573=ORIENTED_EDGE('',*,*,#572,.T.);
#574=ORIENTED_EDGE('',*,*,#318,.F.);
#576=ORIENTED_EDGE('',*,*,#575,.T.);
#577=ORIENTED_EDGE('',*,*,#470,.T.);
#578=EDGE_LOOP('',(#573,#574,#576,#577));
#579=FACE_OUTER_BOUND('',#578,.F.);
#580=ORIENTED_EDGE('',*,*,#547,.T.);
#581=ORIENTED_EDGE('',*,*,#561,.T.);
#582=EDGE_LOOP('',(#580,#581));
#583=FACE_BOUND('',#582,.F.);
#584=ADVANCED_FACE('',(#579,#583),#571,.T.);
#585=CARTESIAN_POINT('',(-1.05E1,1.09698E1,3.E0));
#586=DIRECTION('',(0.E0,-1.E0,0.E0));
#587=DIRECTION('',(0.E0,0.E0,1.E0));
#588=AXIS2_PLACEMENT_3D('',#585,#586,#587);
#589=CYLINDRICAL_SURFACE('',#588,3.E0);
#590=ORIENTED_EDGE('',*,*,#525,.F.);
#591=ORIENTED_EDGE('',*,*,#320,.T.);
#592=ORIENTED_EDGE('',*,*,#572,.F.);
#593=ORIENTED_EDGE('',*,*,#468,.T.);
#594=EDGE_LOOP('',(#590,#591,#592,#593));
#595=FACE_OUTER_BOUND('',#594,.F.);
#596=ADVANCED_FACE('',(#595),#589,.T.);
#597=CARTESIAN_POINT('',(-7.5E0,3.8E0,0.E0));
#598=DIRECTION('',(-1.E0,0.E0,0.E0));
#599=DIRECTION('',(0.E0,-1.E0,0.E0));
#600=AXIS2_PLACEMENT_3D('',#597,#598,#599);
#601=PLANE('',#600);
#603=ORIENTED_EDGE('',*,*,#602,.F.);
#604=ORIENTED_EDGE('',*,*,#472,.T.);
#605=ORIENTED_EDGE('',*,*,#575,.F.);
#606=ORIENTED_EDGE('',*,*,#316,.F.);
#607=EDGE_LOOP('',(#603,#604,#605,#606));
#608=FACE_OUTER_BOUND('',#607,.F.);
#609=ADVANCED_FACE('',(#608),#601,.T.);
#610=CARTESIAN_POINT('',(-7.E0,3.3E0,1.38216E1));
#611=DIRECTION('',(0.E0,0.E0,-1.E0));
#612=DIRECTION('',(-1.E0,0.E0,0.E0));
#613=AXIS2_PLACEMENT_3D('',#610,#611,#612);
#614=CYLINDRICAL_SURFACE('',#613,5.E-1);
#615=ORIENTED_EDGE('',*,*,#314,.T.);
#617=ORIENTED_EDGE('',*,*,#616,.F.);
#618=ORIENTED_EDGE('',*,*,#474,.T.);
#619=ORIENTED_EDGE('',*,*,#602,.T.);
#620=EDGE_LOOP('',(#615,#617,#618,#619));
#621=FACE_OUTER_BOUND('',#620,.F.);
#622=ADVANCED_FACE('',(#621),#614,.T.);
#623=CARTESIAN_POINT('',(7.5E0,3.8E0,0.E0));
#624=DIRECTION('',(0.E0,1.E0,0.E0));
#625=DIRECTION('',(-1.E0,0.E0,0.E0));
#626=AXIS2_PLACEMENT_3D('',#623,#624,#625);
#627=PLANE('',#626);
#628=ORIENTED_EDGE('',*,*,#351,.F.);
#629=ORIENTED_EDGE('',*,*,#476,.T.);
#630=ORIENTED_EDGE('',*,*,#616,.T.);
#631=ORIENTED_EDGE('',*,*,#312,.F.);
#632=EDGE_LOOP('',(#628,#629,#630,#631));
#633=FACE_OUTER_BOUND('',#632,.F.);
#634=ADVANCED_FACE('',(#633),#627,.T.);
#638=DIMENSIONAL_EXPONENTS(0.E0,0.E0,0.E0,0.E0,0.E0,0.E0,0.E0);
#640=PLANE_ANGLE_MEASURE_WITH_UNIT(PLANE_ANGLE_MEASURE(1.745329251994E-2),#639);
#641=(CONVERSION_BASED_UNIT('DEGREE',#640)NAMED_UNIT(*)PLANE_ANGLE_UNIT());
#643=UNCERTAINTY_MEASURE_WITH_UNIT(LENGTH_MEASURE(2.820619764899E-3),#637,
'closure',
'Maximum model space distance between geometric entities at asserted connectivities');
#644=(GEOMETRIC_REPRESENTATION_CONTEXT(3)GLOBAL_UNCERTAINTY_ASSIGNED_CONTEXT((
#643))GLOBAL_UNIT_ASSIGNED_CONTEXT((#637,#641,#642))REPRESENTATION_CONTEXT
('ID1','3'));
#645=CARTESIAN_POINT('',(0.E0,0.E0,0.E0));
#646=DIRECTION('',(0.E0,0.E0,1.E0));
#647=DIRECTION('',(1.E0,0.E0,0.E0));
#650=APPLICATION_CONTEXT(
'CONFIGURATION CONTROLLED 3D DESIGNS OF MECHANICAL PARTS AND ASSEMBLIES');
#651=APPLICATION_PROTOCOL_DEFINITION('international standard',
'config_control_design',1994,#650);
#652=DESIGN_CONTEXT('',#650,'design');
#653=MECHANICAL_CONTEXT('',#650,'mechanical');
#654=PRODUCT('234661_EP01','234661_EP01','NOT SPECIFIED',(#653));
#655=PRODUCT_DEFINITION_FORMATION_WITH_SPECIFIED_SOURCE('1','LAST_VERSION',#654,
.MADE.);
#664=CARTESIAN_POINT('',(0.E0,0.E0,0.E0));
#665=DIRECTION('',(0.E0,0.E0,1.E0));
#666=DIRECTION('',(1.E0,0.E0,0.E0));
#667=AXIS2_PLACEMENT_3D('',#664,#665,#666);
#668=ITEM_DEFINED_TRANSFORMATION('','',#648,#667);
#669=(REPRESENTATION_RELATIONSHIP('','',#649,#661)REPRESENTATION_RELATIONSHIP_WITH_TRANSFORMATION(#668)SHAPE_REPRESENTATION_RELATIONSHIP());
#670=CONTEXT_DEPENDENT_SHAPE_REPRESENTATION(#669,#663);
#672=DIMENSIONAL_EXPONENTS(0.E0,0.E0,0.E0,0.E0,0.E0,0.E0,0.E0);
#674=PLANE_ANGLE_MEASURE_WITH_UNIT(PLANE_ANGLE_MEASURE(1.745329251994E-2),#673);
#675=(CONVERSION_BASED_UNIT('DEGREE',#674)NAMED_UNIT(*)PLANE_ANGLE_UNIT());
#677=UNCERTAINTY_MEASURE_WITH_UNIT(LENGTH_MEASURE(2.820619764899E-3),#671,
'closure',
'Maximum model space distance between geometric entities at asserted connectivities');
#678=(GEOMETRIC_REPRESENTATION_CONTEXT(3)GLOBAL_UNCERTAINTY_ASSIGNED_CONTEXT((
#677))GLOBAL_UNIT_ASSIGNED_CONTEXT((#671,#675,#676))REPRESENTATION_CONTEXT
('ID2','3'));
#679=CARTESIAN_POINT('',(0.E0,0.E0,0.E0));
#680=DIRECTION('',(0.E0,0.E0,1.E0));
#681=DIRECTION('',(1.E0,0.E0,0.E0));
#683=MECHANICAL_CONTEXT('',#650,'mechanical');
#684=PRODUCT('234661_SM01_ASM','234661_SM01_ASM','NOT SPECIFIED',(#683));
#685=PRODUCT_DEFINITION_FORMATION_WITH_SPECIFIED_SOURCE('1','LAST_VERSION',#684,
.MADE.);
#687=PRODUCT_CATEGORY('part','');
#688=PRODUCT_RELATED_PRODUCT_CATEGORY('assembly','',(#684));
#689=PRODUCT_CATEGORY_RELATIONSHIP('','',#687,#688);
#690=PRODUCT_CATEGORY('part','');
#691=PRODUCT_RELATED_PRODUCT_CATEGORY('detail','',(#654));
#692=PRODUCT_CATEGORY_RELATIONSHIP('','',#690,#691);
#693=SECURITY_CLASSIFICATION_LEVEL('unclassified');
#694=SECURITY_CLASSIFICATION('','',#693);
#695=CC_DESIGN_SECURITY_CLASSIFICATION(#694,(#655,#685,#662));
#696=APPROVAL_STATUS('approved');
#697=APPROVAL(#696,'');
#698=CC_DESIGN_APPROVAL(#697,(#694,#655,#685,#656,#686));
#699=CALENDAR_DATE(123,14,6);
#700=COORDINATED_UNIVERSAL_TIME_OFFSET(5,0,.BEHIND.);
#701=LOCAL_TIME(13,40,4.1E1,#700);
#702=DATE_AND_TIME(#699,#701);
#703=APPROVAL_DATE_TIME(#702,#697);
#704=DATE_TIME_ROLE('creation_date');
#705=CC_DESIGN_DATE_AND_TIME_ASSIGNMENT(#702,#704,(#656,#686));
#706=DATE_TIME_ROLE('classification_date');
#707=CC_DESIGN_DATE_AND_TIME_ASSIGNMENT(#702,#706,(#694));
#708=PERSON('UNSPECIFIED','UNSPECIFIED',$,$,$,$);
#709=ORGANIZATION('UNSPECIFIED','UNSPECIFIED','UNSPECIFIED');
#710=PERSON_AND_ORGANIZATION(#708,#709);
#711=APPROVAL_ROLE('approver');
#712=APPROVAL_PERSON_ORGANIZATION(#710,#697,#711);
#713=PERSON_AND_ORGANIZATION_ROLE('creator');
#714=CC_DESIGN_PERSON_AND_ORGANIZATION_ASSIGNMENT(#710,#713,(#655,#685,#656,
#686));
#715=PERSON_AND_ORGANIZATION_ROLE('design_supplier');
#716=CC_DESIGN_PERSON_AND_ORGANIZATION_ASSIGNMENT(#710,#715,(#655,#685));
#717=PERSON_AND_ORGANIZATION_ROLE('classification_officer');
#718=CC_DESIGN_PERSON_AND_ORGANIZATION_ASSIGNMENT(#710,#717,(#694));
#719=PERSON_AND_ORGANIZATION_ROLE('design_owner');
#720=CC_DESIGN_PERSON_AND_ORGANIZATION_ASSIGNMENT(#710,#719,(#684,#654));
#5=CIRCLE('',#4,5.E-1);
#14=CIRCLE('',#13,5.E-1);
#71=CIRCLE('',#70,1.E0);
#76=CIRCLE('',#75,1.E0);
#81=CIRCLE('',#80,3.E0);
#90=CIRCLE('',#89,1.E0);
#95=CIRCLE('',#94,1.E0);
#100=CIRCLE('',#99,3.E0);
#113=CIRCLE('',#112,5.E-1);
#162=CIRCLE('',#161,5.E-1);
#183=CIRCLE('',#182,1.E0);
#188=CIRCLE('',#187,1.E0);
#193=CIRCLE('',#192,3.E0);
#206=CIRCLE('',#205,1.E0);
#211=CIRCLE('',#210,1.E0);
#216=CIRCLE('',#215,3.E0);
#310=EDGE_CURVE('',#291,#292,#5,.T.);
#312=EDGE_CURVE('',#291,#300,#9,.T.);
#314=EDGE_CURVE('',#299,#300,#14,.T.);
#316=EDGE_CURVE('',#299,#255,#18,.T.);
#318=EDGE_CURVE('',#255,#278,#22,.T.);
#320=EDGE_CURVE('',#275,#278,#26,.T.);
#322=EDGE_CURVE('',#275,#235,#30,.T.);
#324=EDGE_CURVE('',#235,#236,#34,.T.);
#326=EDGE_CURVE('',#236,#238,#38,.T.);
#328=EDGE_CURVE('',#238,#240,#42,.T.);
#330=EDGE_CURVE('',#240,#286,#46,.T.);
#332=EDGE_CURVE('',#283,#286,#50,.T.);
#334=EDGE_CURVE('',#283,#251,#54,.T.);
#336=EDGE_CURVE('',#251,#292,#58,.T.);
#347=EDGE_CURVE('',#294,#292,#62,.T.);
#349=EDGE_CURVE('',#294,#296,#113,.T.);
#351=EDGE_CURVE('',#296,#291,#228,.T.);
#363=EDGE_CURVE('',#251,#252,#66,.T.);
#365=EDGE_CURVE('',#252,#294,#117,.T.);
#375=EDGE_CURVE('',#283,#284,#81,.T.);
#377=EDGE_CURVE('',#284,#252,#121,.T.);
#383=EDGE_CURVE('',#267,#268,#71,.T.);
#385=EDGE_CURVE('',#268,#267,#76,.T.);
#395=EDGE_CURVE('',#263,#264,#90,.T.);
#397=EDGE_CURVE('',#268,#264,#108,.T.);
#400=EDGE_CURVE('',#267,#263,#85,.T.);
#410=EDGE_CURVE('',#288,#286,#100,.T.);
#413=EDGE_CURVE('',#240,#248,#104,.T.);
#415=EDGE_CURVE('',#248,#288,#129,.T.);
#420=EDGE_CURVE('',#264,#263,#95,.T.);
#445=EDGE_CURVE('',#288,#284,#125,.T.);
#460=EDGE_CURVE('',#246,#248,#133,.T.);
#462=EDGE_CURVE('',#244,#246,#137,.T.);
#464=EDGE_CURVE('',#243,#244,#141,.T.);
#466=EDGE_CURVE('',#276,#243,#145,.T.);
#468=EDGE_CURVE('',#280,#276,#149,.T.);
#470=EDGE_CURVE('',#256,#280,#153,.T.);
#472=EDGE_CURVE('',#304,#256,#157,.T.);
#474=EDGE_CURVE('',#302,#304,#162,.T.);
#476=EDGE_CURVE('',#296,#302,#166,.T.);
#487=EDGE_CURVE('',#238,#246,#170,.T.);
#500=EDGE_CURVE('',#236,#244,#174,.T.);
#513=EDGE_CURVE('',#235,#243,#178,.T.);
#525=EDGE_CURVE('',#275,#276,#193,.T.);
#532=EDGE_CURVE('',#259,#260,#183,.T.);
#534=EDGE_CURVE('',#260,#259,#188,.T.);
#545=EDGE_CURVE('',#272,#260,#201,.T.);
#547=EDGE_CURVE('',#271,#272,#206,.T.);
#549=EDGE_CURVE('',#271,#259,#197,.T.);
#561=EDGE_CURVE('',#272,#271,#211,.T.);
#572=EDGE_CURVE('',#280,#278,#216,.T.);
#575=EDGE_CURVE('',#255,#256,#220,.T.);
#602=EDGE_CURVE('',#304,#299,#224,.T.);
#616=EDGE_CURVE('',#302,#300,#232,.T.);
#635=CLOSED_SHELL('',(#340,#355,#369,#389,#404,#424,#436,#449,#480,#493,#506,
#519,#538,#553,#566,#584,#596,#609,#622,#634));
#636=MANIFOLD_SOLID_BREP('',#635);
#637=(LENGTH_UNIT()NAMED_UNIT(*)SI_UNIT(.MILLI.,.METRE.));
#639=(NAMED_UNIT(*)PLANE_ANGLE_UNIT()SI_UNIT($,.RADIAN.));
#642=(NAMED_UNIT(*)SI_UNIT($,.STERADIAN.)SOLID_ANGLE_UNIT());
#648=AXIS2_PLACEMENT_3D('',#645,#646,#647);
#649=ADVANCED_BREP_SHAPE_REPRESENTATION('',(#648,#636),#644);
#656=PRODUCT_DEFINITION('design','',#655,#652);
#657=PRODUCT_DEFINITION_SHAPE('','SHAPE FOR 234661_EP01.',#656);
#658=SHAPE_DEFINITION_REPRESENTATION(#657,#649);
#659=SHAPE_DEFINITION_REPRESENTATION(#660,#661);
#660=PRODUCT_DEFINITION_SHAPE('','SHAPE FOR 234661_SM01_ASM.',#686);
#661=SHAPE_REPRESENTATION('',(#667,#682),#678);
#662=NEXT_ASSEMBLY_USAGE_OCCURRENCE('0','Next assembly relationship',
'234661_EP01',#686,#656,$);
#663=PRODUCT_DEFINITION_SHAPE('Placement #0',
'Placement of 234661_EP01 with respect to 234661_SM01_ASM',#662);
#671=(LENGTH_UNIT()NAMED_UNIT(*)SI_UNIT(.MILLI.,.METRE.));
#673=(NAMED_UNIT(*)PLANE_ANGLE_UNIT()SI_UNIT($,.RADIAN.));
#676=(NAMED_UNIT(*)SI_UNIT($,.STERADIAN.)SOLID_ANGLE_UNIT());
#682=AXIS2_PLACEMENT_3D('',#679,#680,#681);
#686=PRODUCT_DEFINITION('design','',#685,#652);
ENDSEC;
END-ISO-10303-21;
