ISO-10303-21;
HEADER;
FILE_DESCRIPTION((''),'2;1');
FILE_NAME('224390_ASM','2024-12-11T14:20:43',('banengservice'),(
'BANNER ENGINEERING'),'CREO PARAMETRIC BY PTC INC, 2022414',
'CREO PARAMETRIC BY PTC INC, 2022414','');
FILE_SCHEMA(('CONFIG_CONTROL_DESIGN'));
ENDSEC;
DATA;
#1=CARTESIAN_POINT('',(0.E0,0.E0,0.E0));
#2=DIRECTION('',(1.E0,0.E0,0.E0));
#3=DIRECTION('',(0.E0,1.E0,0.E0));
#4=AXIS2_PLACEMENT_3D('',#1,#2,#3);
#6=DIRECTION('',(-1.E0,0.E0,0.E0));
#7=VECTOR('',#6,3.E1);
#8=CARTESIAN_POINT('',(0.E0,2.E0,0.E0));
#9=LINE('',#8,#7);
#10=DIRECTION('',(-1.E0,0.E0,0.E0));
#11=VECTOR('',#10,3.E1);
#12=CARTESIAN_POINT('',(0.E0,-2.E0,0.E0));
#13=LINE('',#12,#11);
#14=CARTESIAN_POINT('',(0.E0,0.E0,0.E0));
#15=DIRECTION('',(-1.E0,0.E0,0.E0));
#16=DIRECTION('',(0.E0,1.E0,0.E0));
#17=AXIS2_PLACEMENT_3D('',#14,#15,#16);
#19=CARTESIAN_POINT('',(-3.E1,0.E0,0.E0));
#20=DIRECTION('',(-1.E0,0.E0,0.E0));
#21=DIRECTION('',(0.E0,1.E0,0.E0));
#22=AXIS2_PLACEMENT_3D('',#19,#20,#21);
#24=CARTESIAN_POINT('',(-3.E1,0.E0,0.E0));
#25=DIRECTION('',(1.E0,0.E0,0.E0));
#26=DIRECTION('',(0.E0,1.E0,0.E0));
#27=AXIS2_PLACEMENT_3D('',#24,#25,#26);
#29=CARTESIAN_POINT('',(-3.E1,0.E0,0.E0));
#30=DIRECTION('',(1.E0,0.E0,0.E0));
#31=DIRECTION('',(0.E0,1.E0,0.E0));
#32=AXIS2_PLACEMENT_3D('',#29,#30,#31);
#34=DIRECTION('',(-1.E0,0.E0,0.E0));
#35=VECTOR('',#34,1.2E2);
#36=CARTESIAN_POINT('',(-3.E1,1.5E0,0.E0));
#37=LINE('',#36,#35);
#38=DIRECTION('',(-1.E0,0.E0,0.E0));
#39=VECTOR('',#38,1.2E2);
#40=CARTESIAN_POINT('',(-3.E1,-1.5E0,0.E0));
#41=LINE('',#40,#39);
#42=CARTESIAN_POINT('',(-3.E1,0.E0,0.E0));
#43=DIRECTION('',(-1.E0,0.E0,0.E0));
#44=DIRECTION('',(0.E0,1.E0,0.E0));
#45=AXIS2_PLACEMENT_3D('',#42,#43,#44);
#47=CARTESIAN_POINT('',(-1.5E2,0.E0,0.E0));
#48=DIRECTION('',(-1.E0,0.E0,0.E0));
#49=DIRECTION('',(0.E0,1.E0,0.E0));
#50=AXIS2_PLACEMENT_3D('',#47,#48,#49);
#52=CARTESIAN_POINT('',(-1.5E2,0.E0,0.E0));
#53=DIRECTION('',(1.E0,0.E0,0.E0));
#54=DIRECTION('',(0.E0,1.E0,0.E0));
#55=AXIS2_PLACEMENT_3D('',#52,#53,#54);
#57=CARTESIAN_POINT('',(-1.5E2,5.5E-1,0.E0));
#58=DIRECTION('',(-1.E0,0.E0,0.E0));
#59=DIRECTION('',(0.E0,0.E0,1.E0));
#60=AXIS2_PLACEMENT_3D('',#57,#58,#59);
#62=CARTESIAN_POINT('',(-1.5E2,5.5E-1,0.E0));
#63=DIRECTION('',(-1.E0,0.E0,0.E0));
#64=DIRECTION('',(0.E0,0.E0,-1.E0));
#65=AXIS2_PLACEMENT_3D('',#62,#63,#64);
#67=CARTESIAN_POINT('',(-1.5E2,-5.5E-1,0.E0));
#68=DIRECTION('',(-1.E0,0.E0,0.E0));
#69=DIRECTION('',(0.E0,0.E0,1.E0));
#70=AXIS2_PLACEMENT_3D('',#67,#68,#69);
#72=CARTESIAN_POINT('',(-1.5E2,-5.5E-1,0.E0));
#73=DIRECTION('',(-1.E0,0.E0,0.E0));
#74=DIRECTION('',(0.E0,0.E0,-1.E0));
#75=AXIS2_PLACEMENT_3D('',#72,#73,#74);
#77=DIRECTION('',(-1.E0,0.E0,0.E0));
#78=VECTOR('',#77,2.9E1);
#79=CARTESIAN_POINT('',(-1.5E2,5.5E-1,5.E-1));
#80=LINE('',#79,#78);
#81=DIRECTION('',(-1.E0,0.E0,0.E0));
#82=VECTOR('',#81,2.9E1);
#83=CARTESIAN_POINT('',(-1.5E2,5.5E-1,-5.E-1));
#84=LINE('',#83,#82);
#85=CARTESIAN_POINT('',(-1.79E2,5.5E-1,0.E0));
#86=DIRECTION('',(-1.E0,0.E0,0.E0));
#87=DIRECTION('',(0.E0,0.E0,1.E0));
#88=AXIS2_PLACEMENT_3D('',#85,#86,#87);
#90=CARTESIAN_POINT('',(-1.79E2,5.5E-1,0.E0));
#91=DIRECTION('',(-1.E0,0.E0,0.E0));
#92=DIRECTION('',(0.E0,0.E0,-1.E0));
#93=AXIS2_PLACEMENT_3D('',#90,#91,#92);
#95=CARTESIAN_POINT('',(-1.79E2,-5.5E-1,0.E0));
#96=DIRECTION('',(-1.E0,0.E0,0.E0));
#97=DIRECTION('',(0.E0,0.E0,1.E0));
#98=AXIS2_PLACEMENT_3D('',#95,#96,#97);
#100=CARTESIAN_POINT('',(-1.79E2,-5.5E-1,0.E0));
#101=DIRECTION('',(-1.E0,0.E0,0.E0));
#102=DIRECTION('',(0.E0,0.E0,-1.E0));
#103=AXIS2_PLACEMENT_3D('',#100,#101,#102);
#105=CARTESIAN_POINT('',(-1.79E2,5.5E-1,0.E0));
#106=DIRECTION('',(-1.E0,0.E0,0.E0));
#107=DIRECTION('',(0.E0,0.E0,1.E0));
#108=AXIS2_PLACEMENT_3D('',#105,#106,#107);
#110=CARTESIAN_POINT('',(-1.79E2,5.5E-1,0.E0));
#111=DIRECTION('',(-1.E0,0.E0,0.E0));
#112=DIRECTION('',(0.E0,0.E0,-1.E0));
#113=AXIS2_PLACEMENT_3D('',#110,#111,#112);
#115=CARTESIAN_POINT('',(-1.79E2,-5.5E-1,0.E0));
#116=DIRECTION('',(-1.E0,0.E0,0.E0));
#117=DIRECTION('',(0.E0,0.E0,1.E0));
#118=AXIS2_PLACEMENT_3D('',#115,#116,#117);
#120=CARTESIAN_POINT('',(-1.79E2,-5.5E-1,0.E0));
#121=DIRECTION('',(-1.E0,0.E0,0.E0));
#122=DIRECTION('',(0.E0,0.E0,-1.E0));
#123=AXIS2_PLACEMENT_3D('',#120,#121,#122);
#125=DIRECTION('',(-1.E0,0.E0,0.E0));
#126=VECTOR('',#125,2.9E1);
#127=CARTESIAN_POINT('',(-1.5E2,-5.5E-1,5.E-1));
#128=LINE('',#127,#126);
#129=DIRECTION('',(-1.E0,0.E0,0.E0));
#130=VECTOR('',#129,2.9E1);
#131=CARTESIAN_POINT('',(-1.5E2,-5.5E-1,-5.E-1));
#132=LINE('',#131,#130);
#133=DIRECTION('',(-1.E0,0.E0,0.E0));
#134=VECTOR('',#133,6.E0);
#135=CARTESIAN_POINT('',(-1.79E2,5.5E-1,2.5E-1));
#136=LINE('',#135,#134);
#137=DIRECTION('',(-1.E0,0.E0,0.E0));
#138=VECTOR('',#137,6.E0);
#139=CARTESIAN_POINT('',(-1.79E2,5.5E-1,-2.5E-1));
#140=LINE('',#139,#138);
#141=CARTESIAN_POINT('',(-1.85E2,5.5E-1,0.E0));
#142=DIRECTION('',(-1.E0,0.E0,0.E0));
#143=DIRECTION('',(0.E0,0.E0,1.E0));
#144=AXIS2_PLACEMENT_3D('',#141,#142,#143);
#146=CARTESIAN_POINT('',(-1.85E2,5.5E-1,0.E0));
#147=DIRECTION('',(-1.E0,0.E0,0.E0));
#148=DIRECTION('',(0.E0,0.E0,-1.E0));
#149=AXIS2_PLACEMENT_3D('',#146,#147,#148);
#151=CARTESIAN_POINT('',(-1.85E2,-5.5E-1,0.E0));
#152=DIRECTION('',(-1.E0,0.E0,0.E0));
#153=DIRECTION('',(0.E0,0.E0,1.E0));
#154=AXIS2_PLACEMENT_3D('',#151,#152,#153);
#156=CARTESIAN_POINT('',(-1.85E2,-5.5E-1,0.E0));
#157=DIRECTION('',(-1.E0,0.E0,0.E0));
#158=DIRECTION('',(0.E0,0.E0,-1.E0));
#159=AXIS2_PLACEMENT_3D('',#156,#157,#158);
#161=DIRECTION('',(-1.E0,0.E0,0.E0));
#162=VECTOR('',#161,6.E0);
#163=CARTESIAN_POINT('',(-1.79E2,-5.5E-1,2.5E-1));
#164=LINE('',#163,#162);
#165=DIRECTION('',(-1.E0,0.E0,0.E0));
#166=VECTOR('',#165,6.E0);
#167=CARTESIAN_POINT('',(-1.79E2,-5.5E-1,-2.5E-1));
#168=LINE('',#167,#166);
#169=CARTESIAN_POINT('',(0.E0,2.E0,0.E0));
#170=CARTESIAN_POINT('',(-3.E1,2.E0,0.E0));
#171=VERTEX_POINT('',#169);
#172=VERTEX_POINT('',#170);
#173=CARTESIAN_POINT('',(-3.E1,1.5E0,0.E0));
#174=CARTESIAN_POINT('',(-1.5E2,1.5E0,0.E0));
#175=VERTEX_POINT('',#173);
#176=VERTEX_POINT('',#174);
#177=CARTESIAN_POINT('',(0.E0,-2.E0,0.E0));
#178=CARTESIAN_POINT('',(-3.E1,-2.E0,0.E0));
#179=VERTEX_POINT('',#177);
#180=VERTEX_POINT('',#178);
#181=CARTESIAN_POINT('',(-3.E1,-1.5E0,0.E0));
#182=CARTESIAN_POINT('',(-1.5E2,-1.5E0,0.E0));
#183=VERTEX_POINT('',#181);
#184=VERTEX_POINT('',#182);
#185=CARTESIAN_POINT('',(-1.79E2,5.5E-1,5.E-1));
#186=CARTESIAN_POINT('',(-1.79E2,5.5E-1,-5.E-1));
#187=VERTEX_POINT('',#185);
#188=VERTEX_POINT('',#186);
#189=CARTESIAN_POINT('',(-1.79E2,-5.5E-1,5.E-1));
#190=CARTESIAN_POINT('',(-1.79E2,-5.5E-1,-5.E-1));
#191=VERTEX_POINT('',#189);
#192=VERTEX_POINT('',#190);
#193=CARTESIAN_POINT('',(-1.5E2,5.5E-1,5.E-1));
#194=CARTESIAN_POINT('',(-1.5E2,5.5E-1,-5.E-1));
#195=VERTEX_POINT('',#193);
#196=VERTEX_POINT('',#194);
#197=CARTESIAN_POINT('',(-1.5E2,-5.5E-1,5.E-1));
#198=CARTESIAN_POINT('',(-1.5E2,-5.5E-1,-5.E-1));
#199=VERTEX_POINT('',#197);
#200=VERTEX_POINT('',#198);
#201=CARTESIAN_POINT('',(-1.85E2,5.5E-1,2.5E-1));
#202=CARTESIAN_POINT('',(-1.85E2,5.5E-1,-2.5E-1));
#203=VERTEX_POINT('',#201);
#204=VERTEX_POINT('',#202);
#205=CARTESIAN_POINT('',(-1.85E2,-5.5E-1,2.5E-1));
#206=CARTESIAN_POINT('',(-1.85E2,-5.5E-1,-2.5E-1));
#207=VERTEX_POINT('',#205);
#208=VERTEX_POINT('',#206);
#209=CARTESIAN_POINT('',(-1.79E2,5.5E-1,2.5E-1));
#210=CARTESIAN_POINT('',(-1.79E2,5.5E-1,-2.5E-1));
#211=VERTEX_POINT('',#209);
#212=VERTEX_POINT('',#210);
#213=CARTESIAN_POINT('',(-1.79E2,-5.5E-1,2.5E-1));
#214=CARTESIAN_POINT('',(-1.79E2,-5.5E-1,-2.5E-1));
#215=VERTEX_POINT('',#213);
#216=VERTEX_POINT('',#214);
#217=CARTESIAN_POINT('',(0.E0,0.E0,0.E0));
#218=DIRECTION('',(1.E0,0.E0,0.E0));
#219=DIRECTION('',(0.E0,-1.E0,0.E0));
#220=AXIS2_PLACEMENT_3D('',#217,#218,#219);
#221=PLANE('',#220);
#223=ORIENTED_EDGE('',*,*,#222,.F.);
#225=ORIENTED_EDGE('',*,*,#224,.T.);
#226=EDGE_LOOP('',(#223,#225));
#227=FACE_OUTER_BOUND('',#226,.F.);
#228=ADVANCED_FACE('',(#227),#221,.T.);
#229=CARTESIAN_POINT('',(-1.575E2,0.E0,0.E0));
#230=DIRECTION('',(1.E0,0.E0,0.E0));
#231=DIRECTION('',(0.E0,-1.E0,0.E0));
#232=AXIS2_PLACEMENT_3D('',#229,#230,#231);
#233=CYLINDRICAL_SURFACE('',#232,2.E0);
#235=ORIENTED_EDGE('',*,*,#234,.F.);
#236=ORIENTED_EDGE('',*,*,#222,.T.);
#238=ORIENTED_EDGE('',*,*,#237,.T.);
#240=ORIENTED_EDGE('',*,*,#239,.F.);
#241=EDGE_LOOP('',(#235,#236,#238,#240));
#242=FACE_OUTER_BOUND('',#241,.F.);
#243=ADVANCED_FACE('',(#242),#233,.T.);
#244=CARTESIAN_POINT('',(-1.575E2,0.E0,0.E0));
#245=DIRECTION('',(1.E0,0.E0,0.E0));
#246=DIRECTION('',(0.E0,-1.E0,0.E0));
#247=AXIS2_PLACEMENT_3D('',#244,#245,#246);
#248=CYLINDRICAL_SURFACE('',#247,2.E0);
#249=ORIENTED_EDGE('',*,*,#234,.T.);
#251=ORIENTED_EDGE('',*,*,#250,.T.);
#252=ORIENTED_EDGE('',*,*,#237,.F.);
#253=ORIENTED_EDGE('',*,*,#224,.F.);
#254=EDGE_LOOP('',(#249,#251,#252,#253));
#255=FACE_OUTER_BOUND('',#254,.F.);
#256=ADVANCED_FACE('',(#255),#248,.T.);
#257=CARTESIAN_POINT('',(-3.E1,0.E0,0.E0));
#258=DIRECTION('',(1.E0,0.E0,0.E0));
#259=DIRECTION('',(0.E0,-1.E0,0.E0));
#260=AXIS2_PLACEMENT_3D('',#257,#258,#259);
#261=PLANE('',#260);
#262=ORIENTED_EDGE('',*,*,#250,.F.);
#263=ORIENTED_EDGE('',*,*,#239,.T.);
#264=EDGE_LOOP('',(#262,#263));
#265=FACE_OUTER_BOUND('',#264,.F.);
#267=ORIENTED_EDGE('',*,*,#266,.F.);
#269=ORIENTED_EDGE('',*,*,#268,.T.);
#270=EDGE_LOOP('',(#267,#269));
#271=FACE_BOUND('',#270,.F.);
#272=ADVANCED_FACE('',(#265,#271),#261,.F.);
#273=CARTESIAN_POINT('',(-1.575E2,0.E0,0.E0));
#274=DIRECTION('',(1.E0,0.E0,0.E0));
#275=DIRECTION('',(0.E0,-1.E0,0.E0));
#276=AXIS2_PLACEMENT_3D('',#273,#274,#275);
#277=CYLINDRICAL_SURFACE('',#276,1.5E0);
#279=ORIENTED_EDGE('',*,*,#278,.F.);
#280=ORIENTED_EDGE('',*,*,#266,.T.);
#282=ORIENTED_EDGE('',*,*,#281,.T.);
#284=ORIENTED_EDGE('',*,*,#283,.F.);
#285=EDGE_LOOP('',(#279,#280,#282,#284));
#286=FACE_OUTER_BOUND('',#285,.F.);
#287=ADVANCED_FACE('',(#286),#277,.T.);
#288=CARTESIAN_POINT('',(-1.575E2,0.E0,0.E0));
#289=DIRECTION('',(1.E0,0.E0,0.E0));
#290=DIRECTION('',(0.E0,-1.E0,0.E0));
#291=AXIS2_PLACEMENT_3D('',#288,#289,#290);
#292=CYLINDRICAL_SURFACE('',#291,1.5E0);
#293=ORIENTED_EDGE('',*,*,#278,.T.);
#295=ORIENTED_EDGE('',*,*,#294,.T.);
#296=ORIENTED_EDGE('',*,*,#281,.F.);
#297=ORIENTED_EDGE('',*,*,#268,.F.);
#298=EDGE_LOOP('',(#293,#295,#296,#297));
#299=FACE_OUTER_BOUND('',#298,.F.);
#300=ADVANCED_FACE('',(#299),#292,.T.);
#301=CARTESIAN_POINT('',(-1.5E2,0.E0,0.E0));
#302=DIRECTION('',(1.E0,0.E0,0.E0));
#303=DIRECTION('',(0.E0,-1.E0,0.E0));
#304=AXIS2_PLACEMENT_3D('',#301,#302,#303);
#305=PLANE('',#304);
#306=ORIENTED_EDGE('',*,*,#294,.F.);
#307=ORIENTED_EDGE('',*,*,#283,.T.);
#308=EDGE_LOOP('',(#306,#307));
#309=FACE_OUTER_BOUND('',#308,.F.);
#311=ORIENTED_EDGE('',*,*,#310,.T.);
#313=ORIENTED_EDGE('',*,*,#312,.T.);
#314=EDGE_LOOP('',(#311,#313));
#315=FACE_BOUND('',#314,.F.);
#317=ORIENTED_EDGE('',*,*,#316,.T.);
#319=ORIENTED_EDGE('',*,*,#318,.T.);
#320=EDGE_LOOP('',(#317,#319));
#321=FACE_BOUND('',#320,.F.);
#322=ADVANCED_FACE('',(#309,#315,#321),#305,.F.);
#323=CARTESIAN_POINT('',(-1.5E2,5.5E-1,0.E0));
#324=DIRECTION('',(-1.E0,0.E0,0.E0));
#325=DIRECTION('',(0.E0,0.E0,1.E0));
#326=AXIS2_PLACEMENT_3D('',#323,#324,#325);
#327=CYLINDRICAL_SURFACE('',#326,5.E-1);
#328=ORIENTED_EDGE('',*,*,#310,.F.);
#330=ORIENTED_EDGE('',*,*,#329,.T.);
#332=ORIENTED_EDGE('',*,*,#331,.T.);
#334=ORIENTED_EDGE('',*,*,#333,.F.);
#335=EDGE_LOOP('',(#328,#330,#332,#334));
#336=FACE_OUTER_BOUND('',#335,.F.);
#337=ADVANCED_FACE('',(#336),#327,.T.);
#338=CARTESIAN_POINT('',(-1.5E2,5.5E-1,0.E0));
#339=DIRECTION('',(-1.E0,0.E0,0.E0));
#340=DIRECTION('',(0.E0,0.E0,1.E0));
#341=AXIS2_PLACEMENT_3D('',#338,#339,#340);
#342=CYLINDRICAL_SURFACE('',#341,5.E-1);
#343=ORIENTED_EDGE('',*,*,#312,.F.);
#344=ORIENTED_EDGE('',*,*,#333,.T.);
#346=ORIENTED_EDGE('',*,*,#345,.T.);
#347=ORIENTED_EDGE('',*,*,#329,.F.);
#348=EDGE_LOOP('',(#343,#344,#346,#347));
#349=FACE_OUTER_BOUND('',#348,.F.);
#350=ADVANCED_FACE('',(#349),#342,.T.);
#351=CARTESIAN_POINT('',(-1.79E2,0.E0,0.E0));
#352=DIRECTION('',(-1.E0,0.E0,0.E0));
#353=DIRECTION('',(0.E0,0.E0,1.E0));
#354=AXIS2_PLACEMENT_3D('',#351,#352,#353);
#355=PLANE('',#354);
#356=ORIENTED_EDGE('',*,*,#331,.F.);
#357=ORIENTED_EDGE('',*,*,#345,.F.);
#358=EDGE_LOOP('',(#356,#357));
#359=FACE_OUTER_BOUND('',#358,.F.);
#361=ORIENTED_EDGE('',*,*,#360,.T.);
#363=ORIENTED_EDGE('',*,*,#362,.T.);
#364=EDGE_LOOP('',(#361,#363));
#365=FACE_BOUND('',#364,.F.);
#366=ADVANCED_FACE('',(#359,#365),#355,.T.);
#367=CARTESIAN_POINT('',(-1.79E2,0.E0,0.E0));
#368=DIRECTION('',(-1.E0,0.E0,0.E0));
#369=DIRECTION('',(0.E0,0.E0,1.E0));
#370=AXIS2_PLACEMENT_3D('',#367,#368,#369);
#371=PLANE('',#370);
#373=ORIENTED_EDGE('',*,*,#372,.F.);
#375=ORIENTED_EDGE('',*,*,#374,.F.);
#376=EDGE_LOOP('',(#373,#375));
#377=FACE_OUTER_BOUND('',#376,.F.);
#379=ORIENTED_EDGE('',*,*,#378,.T.);
#381=ORIENTED_EDGE('',*,*,#380,.T.);
#382=EDGE_LOOP('',(#379,#381));
#383=FACE_BOUND('',#382,.F.);
#384=ADVANCED_FACE('',(#377,#383),#371,.T.);
#385=CARTESIAN_POINT('',(-1.5E2,-5.5E-1,0.E0));
#386=DIRECTION('',(-1.E0,0.E0,0.E0));
#387=DIRECTION('',(0.E0,0.E0,1.E0));
#388=AXIS2_PLACEMENT_3D('',#385,#386,#387);
#389=CYLINDRICAL_SURFACE('',#388,5.E-1);
#390=ORIENTED_EDGE('',*,*,#316,.F.);
#392=ORIENTED_EDGE('',*,*,#391,.T.);
#393=ORIENTED_EDGE('',*,*,#372,.T.);
#395=ORIENTED_EDGE('',*,*,#394,.F.);
#396=EDGE_LOOP('',(#390,#392,#393,#395));
#397=FACE_OUTER_BOUND('',#396,.F.);
#398=ADVANCED_FACE('',(#397),#389,.T.);
#399=CARTESIAN_POINT('',(-1.5E2,-5.5E-1,0.E0));
#400=DIRECTION('',(-1.E0,0.E0,0.E0));
#401=DIRECTION('',(0.E0,0.E0,1.E0));
#402=AXIS2_PLACEMENT_3D('',#399,#400,#401);
#403=CYLINDRICAL_SURFACE('',#402,5.E-1);
#404=ORIENTED_EDGE('',*,*,#318,.F.);
#405=ORIENTED_EDGE('',*,*,#394,.T.);
#406=ORIENTED_EDGE('',*,*,#374,.T.);
#407=ORIENTED_EDGE('',*,*,#391,.F.);
#408=EDGE_LOOP('',(#404,#405,#406,#407));
#409=FACE_OUTER_BOUND('',#408,.F.);
#410=ADVANCED_FACE('',(#409),#403,.T.);
#411=CARTESIAN_POINT('',(-1.79E2,5.5E-1,0.E0));
#412=DIRECTION('',(-1.E0,0.E0,0.E0));
#413=DIRECTION('',(0.E0,0.E0,1.E0));
#414=AXIS2_PLACEMENT_3D('',#411,#412,#413);
#415=CYLINDRICAL_SURFACE('',#414,2.5E-1);
#416=ORIENTED_EDGE('',*,*,#360,.F.);
#418=ORIENTED_EDGE('',*,*,#417,.T.);
#420=ORIENTED_EDGE('',*,*,#419,.T.);
#422=ORIENTED_EDGE('',*,*,#421,.F.);
#423=EDGE_LOOP('',(#416,#418,#420,#422));
#424=FACE_OUTER_BOUND('',#423,.F.);
#425=ADVANCED_FACE('',(#424),#415,.T.);
#426=CARTESIAN_POINT('',(-1.79E2,5.5E-1,0.E0));
#427=DIRECTION('',(-1.E0,0.E0,0.E0));
#428=DIRECTION('',(0.E0,0.E0,1.E0));
#429=AXIS2_PLACEMENT_3D('',#426,#427,#428);
#430=CYLINDRICAL_SURFACE('',#429,2.5E-1);
#431=ORIENTED_EDGE('',*,*,#362,.F.);
#432=ORIENTED_EDGE('',*,*,#421,.T.);
#434=ORIENTED_EDGE('',*,*,#433,.T.);
#435=ORIENTED_EDGE('',*,*,#417,.F.);
#436=EDGE_LOOP('',(#431,#432,#434,#435));
#437=FACE_OUTER_BOUND('',#436,.F.);
#438=ADVANCED_FACE('',(#437),#430,.T.);
#439=CARTESIAN_POINT('',(-1.85E2,0.E0,0.E0));
#440=DIRECTION('',(-1.E0,0.E0,0.E0));
#441=DIRECTION('',(0.E0,0.E0,1.E0));
#442=AXIS2_PLACEMENT_3D('',#439,#440,#441);
#443=PLANE('',#442);
#444=ORIENTED_EDGE('',*,*,#419,.F.);
#445=ORIENTED_EDGE('',*,*,#433,.F.);
#446=EDGE_LOOP('',(#444,#445));
#447=FACE_OUTER_BOUND('',#446,.F.);
#448=ADVANCED_FACE('',(#447),#443,.T.);
#449=CARTESIAN_POINT('',(-1.85E2,0.E0,0.E0));
#450=DIRECTION('',(-1.E0,0.E0,0.E0));
#451=DIRECTION('',(0.E0,0.E0,1.E0));
#452=AXIS2_PLACEMENT_3D('',#449,#450,#451);
#453=PLANE('',#452);
#455=ORIENTED_EDGE('',*,*,#454,.F.);
#457=ORIENTED_EDGE('',*,*,#456,.F.);
#458=EDGE_LOOP('',(#455,#457));
#459=FACE_OUTER_BOUND('',#458,.F.);
#460=ADVANCED_FACE('',(#459),#453,.T.);
#461=CARTESIAN_POINT('',(-1.79E2,-5.5E-1,0.E0));
#462=DIRECTION('',(-1.E0,0.E0,0.E0));
#463=DIRECTION('',(0.E0,0.E0,1.E0));
#464=AXIS2_PLACEMENT_3D('',#461,#462,#463);
#465=CYLINDRICAL_SURFACE('',#464,2.5E-1);
#466=ORIENTED_EDGE('',*,*,#378,.F.);
#468=ORIENTED_EDGE('',*,*,#467,.T.);
#469=ORIENTED_EDGE('',*,*,#454,.T.);
#471=ORIENTED_EDGE('',*,*,#470,.F.);
#472=EDGE_LOOP('',(#466,#468,#469,#471));
#473=FACE_OUTER_BOUND('',#472,.F.);
#474=ADVANCED_FACE('',(#473),#465,.T.);
#475=CARTESIAN_POINT('',(-1.79E2,-5.5E-1,0.E0));
#476=DIRECTION('',(-1.E0,0.E0,0.E0));
#477=DIRECTION('',(0.E0,0.E0,1.E0));
#478=AXIS2_PLACEMENT_3D('',#475,#476,#477);
#479=CYLINDRICAL_SURFACE('',#478,2.5E-1);
#480=ORIENTED_EDGE('',*,*,#380,.F.);
#481=ORIENTED_EDGE('',*,*,#470,.T.);
#482=ORIENTED_EDGE('',*,*,#456,.T.);
#483=ORIENTED_EDGE('',*,*,#467,.F.);
#484=EDGE_LOOP('',(#480,#481,#482,#483));
#485=FACE_OUTER_BOUND('',#484,.F.);
#486=ADVANCED_FACE('',(#485),#479,.T.);
#490=DIMENSIONAL_EXPONENTS(0.E0,0.E0,0.E0,0.E0,0.E0,0.E0,0.E0);
#492=PLANE_ANGLE_MEASURE_WITH_UNIT(PLANE_ANGLE_MEASURE(1.745329251994E-2),#491);
#493=(CONVERSION_BASED_UNIT('DEGREE',#492)NAMED_UNIT(*)PLANE_ANGLE_UNIT());
#495=UNCERTAINTY_MEASURE_WITH_UNIT(LENGTH_MEASURE(1.850794188202E-2),#489,
'closure',
'Maximum model space distance between geometric entities at asserted connectivities');
#496=(GEOMETRIC_REPRESENTATION_CONTEXT(3)GLOBAL_UNCERTAINTY_ASSIGNED_CONTEXT((
#495))GLOBAL_UNIT_ASSIGNED_CONTEXT((#489,#493,#494))REPRESENTATION_CONTEXT
('ID1','3'));
#497=CARTESIAN_POINT('',(0.E0,0.E0,0.E0));
#498=DIRECTION('',(0.E0,0.E0,1.E0));
#499=DIRECTION('',(1.E0,0.E0,0.E0));
#502=APPLICATION_CONTEXT(
'CONFIGURATION CONTROLLED 3D DESIGNS OF MECHANICAL PARTS AND ASSEMBLIES');
#503=APPLICATION_PROTOCOL_DEFINITION('international standard',
'config_control_design',1994,#502);
#504=DESIGN_CONTEXT('',#502,'design');
#505=MECHANICAL_CONTEXT('',#502,'mechanical');
#506=PRODUCT('219737','219737','NOT SPECIFIED',(#505));
#507=PRODUCT_DEFINITION_FORMATION_WITH_SPECIFIED_SOURCE('1','LAST_VERSION',#506,
.MADE.);
#516=CARTESIAN_POINT('',(0.E0,0.E0,0.E0));
#517=DIRECTION('',(0.E0,0.E0,1.E0));
#518=DIRECTION('',(1.E0,0.E0,0.E0));
#519=AXIS2_PLACEMENT_3D('',#516,#517,#518);
#520=ITEM_DEFINED_TRANSFORMATION('','',#500,#519);
#521=(REPRESENTATION_RELATIONSHIP('','',#501,#513)REPRESENTATION_RELATIONSHIP_WITH_TRANSFORMATION(#520)SHAPE_REPRESENTATION_RELATIONSHIP());
#522=CONTEXT_DEPENDENT_SHAPE_REPRESENTATION(#521,#515);
#524=DIMENSIONAL_EXPONENTS(0.E0,0.E0,0.E0,0.E0,0.E0,0.E0,0.E0);
#526=PLANE_ANGLE_MEASURE_WITH_UNIT(PLANE_ANGLE_MEASURE(1.745329251994E-2),#525);
#527=(CONVERSION_BASED_UNIT('DEGREE',#526)NAMED_UNIT(*)PLANE_ANGLE_UNIT());
#529=UNCERTAINTY_MEASURE_WITH_UNIT(LENGTH_MEASURE(1.850794188202E-2),#523,
'closure',
'Maximum model space distance between geometric entities at asserted connectivities');
#530=(GEOMETRIC_REPRESENTATION_CONTEXT(3)GLOBAL_UNCERTAINTY_ASSIGNED_CONTEXT((
#529))GLOBAL_UNIT_ASSIGNED_CONTEXT((#523,#527,#528))REPRESENTATION_CONTEXT
('ID2','3'));
#531=CARTESIAN_POINT('',(0.E0,0.E0,0.E0));
#532=DIRECTION('',(0.E0,0.E0,1.E0));
#533=DIRECTION('',(1.E0,0.E0,0.E0));
#535=MECHANICAL_CONTEXT('',#502,'mechanical');
#536=PRODUCT('224390_ASM','224390_ASM','NOT SPECIFIED',(#535));
#537=PRODUCT_DEFINITION_FORMATION_WITH_SPECIFIED_SOURCE('1','LAST_VERSION',#536,
.MADE.);
#539=PRODUCT_CATEGORY('part','');
#540=PRODUCT_RELATED_PRODUCT_CATEGORY('assembly','',(#536));
#541=PRODUCT_CATEGORY_RELATIONSHIP('','',#539,#540);
#542=PRODUCT_CATEGORY('part','');
#543=PRODUCT_RELATED_PRODUCT_CATEGORY('detail','',(#506));
#544=PRODUCT_CATEGORY_RELATIONSHIP('','',#542,#543);
#545=SECURITY_CLASSIFICATION_LEVEL('unclassified');
#546=SECURITY_CLASSIFICATION('','',#545);
#547=CC_DESIGN_SECURITY_CLASSIFICATION(#546,(#507,#537,#514));
#548=APPROVAL_STATUS('approved');
#549=APPROVAL(#548,'');
#550=CC_DESIGN_APPROVAL(#549,(#546,#507,#537,#508,#538));
#551=CALENDAR_DATE(124,11,12);
#552=COORDINATED_UNIVERSAL_TIME_OFFSET(6,0,.BEHIND.);
#553=LOCAL_TIME(14,20,4.3E1,#552);
#554=DATE_AND_TIME(#551,#553);
#555=APPROVAL_DATE_TIME(#554,#549);
#556=DATE_TIME_ROLE('creation_date');
#557=CC_DESIGN_DATE_AND_TIME_ASSIGNMENT(#554,#556,(#508,#538));
#558=DATE_TIME_ROLE('classification_date');
#559=CC_DESIGN_DATE_AND_TIME_ASSIGNMENT(#554,#558,(#546));
#560=PERSON('UNSPECIFIED','UNSPECIFIED',$,$,$,$);
#561=ORGANIZATION('UNSPECIFIED','UNSPECIFIED','UNSPECIFIED');
#562=PERSON_AND_ORGANIZATION(#560,#561);
#563=APPROVAL_ROLE('approver');
#564=APPROVAL_PERSON_ORGANIZATION(#562,#549,#563);
#565=PERSON_AND_ORGANIZATION_ROLE('creator');
#566=CC_DESIGN_PERSON_AND_ORGANIZATION_ASSIGNMENT(#562,#565,(#507,#537,#508,
#538));
#567=PERSON_AND_ORGANIZATION_ROLE('design_supplier');
#568=CC_DESIGN_PERSON_AND_ORGANIZATION_ASSIGNMENT(#562,#567,(#507,#537));
#569=PERSON_AND_ORGANIZATION_ROLE('classification_officer');
#570=CC_DESIGN_PERSON_AND_ORGANIZATION_ASSIGNMENT(#562,#569,(#546));
#571=PERSON_AND_ORGANIZATION_ROLE('design_owner');
#572=CC_DESIGN_PERSON_AND_ORGANIZATION_ASSIGNMENT(#562,#571,(#536,#506));
#5=CIRCLE('',#4,2.E0);
#18=CIRCLE('',#17,2.E0);
#23=CIRCLE('',#22,2.E0);
#28=CIRCLE('',#27,2.E0);
#33=CIRCLE('',#32,1.5E0);
#46=CIRCLE('',#45,1.5E0);
#51=CIRCLE('',#50,1.5E0);
#56=CIRCLE('',#55,1.5E0);
#61=CIRCLE('',#60,5.E-1);
#66=CIRCLE('',#65,5.E-1);
#71=CIRCLE('',#70,5.E-1);
#76=CIRCLE('',#75,5.E-1);
#89=CIRCLE('',#88,5.E-1);
#94=CIRCLE('',#93,5.E-1);
#99=CIRCLE('',#98,5.E-1);
#104=CIRCLE('',#103,5.E-1);
#109=CIRCLE('',#108,2.5E-1);
#114=CIRCLE('',#113,2.5E-1);
#119=CIRCLE('',#118,2.5E-1);
#124=CIRCLE('',#123,2.5E-1);
#145=CIRCLE('',#144,2.5E-1);
#150=CIRCLE('',#149,2.5E-1);
#155=CIRCLE('',#154,2.5E-1);
#160=CIRCLE('',#159,2.5E-1);
#222=EDGE_CURVE('',#171,#179,#5,.T.);
#224=EDGE_CURVE('',#171,#179,#18,.T.);
#234=EDGE_CURVE('',#171,#172,#9,.T.);
#237=EDGE_CURVE('',#179,#180,#13,.T.);
#239=EDGE_CURVE('',#172,#180,#28,.T.);
#250=EDGE_CURVE('',#172,#180,#23,.T.);
#266=EDGE_CURVE('',#175,#183,#33,.T.);
#268=EDGE_CURVE('',#175,#183,#46,.T.);
#278=EDGE_CURVE('',#175,#176,#37,.T.);
#281=EDGE_CURVE('',#183,#184,#41,.T.);
#283=EDGE_CURVE('',#176,#184,#56,.T.);
#294=EDGE_CURVE('',#176,#184,#51,.T.);
#310=EDGE_CURVE('',#195,#196,#61,.T.);
#312=EDGE_CURVE('',#196,#195,#66,.T.);
#316=EDGE_CURVE('',#199,#200,#71,.T.);
#318=EDGE_CURVE('',#200,#199,#76,.T.);
#329=EDGE_CURVE('',#195,#187,#80,.T.);
#331=EDGE_CURVE('',#187,#188,#89,.T.);
#333=EDGE_CURVE('',#196,#188,#84,.T.);
#345=EDGE_CURVE('',#188,#187,#94,.T.);
#360=EDGE_CURVE('',#211,#212,#109,.T.);
#362=EDGE_CURVE('',#212,#211,#114,.T.);
#372=EDGE_CURVE('',#191,#192,#99,.T.);
#374=EDGE_CURVE('',#192,#191,#104,.T.);
#378=EDGE_CURVE('',#215,#216,#119,.T.);
#380=EDGE_CURVE('',#216,#215,#124,.T.);
#391=EDGE_CURVE('',#199,#191,#128,.T.);
#394=EDGE_CURVE('',#200,#192,#132,.T.);
#417=EDGE_CURVE('',#211,#203,#136,.T.);
#419=EDGE_CURVE('',#203,#204,#145,.T.);
#421=EDGE_CURVE('',#212,#204,#140,.T.);
#433=EDGE_CURVE('',#204,#203,#150,.T.);
#454=EDGE_CURVE('',#207,#208,#155,.T.);
#456=EDGE_CURVE('',#208,#207,#160,.T.);
#467=EDGE_CURVE('',#215,#207,#164,.T.);
#470=EDGE_CURVE('',#216,#208,#168,.T.);
#487=CLOSED_SHELL('',(#228,#243,#256,#272,#287,#300,#322,#337,#350,#366,#384,
#398,#410,#425,#438,#448,#460,#474,#486));
#488=MANIFOLD_SOLID_BREP('',#487);
#489=(LENGTH_UNIT()NAMED_UNIT(*)SI_UNIT(.MILLI.,.METRE.));
#491=(NAMED_UNIT(*)PLANE_ANGLE_UNIT()SI_UNIT($,.RADIAN.));
#494=(NAMED_UNIT(*)SI_UNIT($,.STERADIAN.)SOLID_ANGLE_UNIT());
#500=AXIS2_PLACEMENT_3D('',#497,#498,#499);
#501=ADVANCED_BREP_SHAPE_REPRESENTATION('',(#500,#488),#496);
#508=PRODUCT_DEFINITION('design','',#507,#504);
#509=PRODUCT_DEFINITION_SHAPE('','SHAPE FOR 219737.',#508);
#510=SHAPE_DEFINITION_REPRESENTATION(#509,#501);
#511=SHAPE_DEFINITION_REPRESENTATION(#512,#513);
#512=PRODUCT_DEFINITION_SHAPE('','SHAPE FOR 224390_ASM.',#538);
#513=SHAPE_REPRESENTATION('',(#519,#534),#530);
#514=NEXT_ASSEMBLY_USAGE_OCCURRENCE('0','Next assembly relationship','219737',
#538,#508,$);
#515=PRODUCT_DEFINITION_SHAPE('Placement #0',
'Placement of 219737 with respect to 224390_ASM',#514);
#523=(LENGTH_UNIT()NAMED_UNIT(*)SI_UNIT(.MILLI.,.METRE.));
#525=(NAMED_UNIT(*)PLANE_ANGLE_UNIT()SI_UNIT($,.RADIAN.));
#528=(NAMED_UNIT(*)SI_UNIT($,.STERADIAN.)SOLID_ANGLE_UNIT());
#534=AXIS2_PLACEMENT_3D('',#531,#532,#533);
#538=PRODUCT_DEFINITION('design','',#537,#504);
ENDSEC;
END-ISO-10303-21;
