ISO-10303-21;
HEADER;
FILE_DESCRIPTION((''),'2;1');
FILE_NAME('214999_ASM','2019-11-01T11:02:18',('pdmadmin'),
('BANNER ENGINEERING'),'CREO PARAMETRIC BY PTC INC, 2018300',
'CREO PARAMETRIC BY PTC INC, 2018300','');
FILE_SCHEMA(('CONFIG_CONTROL_DESIGN'));
ENDSEC;
DATA;
#1=DIRECTION('',(0.E0,-1.E0,0.E0));
#2=VECTOR('',#1,6.1E1);
#3=CARTESIAN_POINT('',(-2.55E1,3.05E1,0.E0));
#4=LINE('',#3,#2);
#5=DIRECTION('',(1.E0,0.E0,0.E0));
#6=VECTOR('',#5,5.1E1);
#7=CARTESIAN_POINT('',(-2.55E1,-3.05E1,0.E0));
#8=LINE('',#7,#6);
#9=DIRECTION('',(0.E0,1.E0,0.E0));
#10=VECTOR('',#9,6.1E1);
#11=CARTESIAN_POINT('',(2.55E1,-3.05E1,0.E0));
#12=LINE('',#11,#10);
#13=DIRECTION('',(-1.E0,0.E0,0.E0));
#14=VECTOR('',#13,5.1E1);
#15=CARTESIAN_POINT('',(2.55E1,3.05E1,0.E0));
#16=LINE('',#15,#14);
#17=CARTESIAN_POINT('',(-2.E1,-2.53E1,0.E0));
#18=DIRECTION('',(0.E0,0.E0,1.E0));
#19=DIRECTION('',(0.E0,1.E0,0.E0));
#20=AXIS2_PLACEMENT_3D('',#17,#18,#19);
#22=DIRECTION('',(-1.E0,0.E0,0.E0));
#23=VECTOR('',#22,1.E1);
#24=CARTESIAN_POINT('',(-1.E1,-2.305E1,0.E0));
#25=LINE('',#24,#23);
#26=CARTESIAN_POINT('',(-1.E1,-2.53E1,0.E0));
#27=DIRECTION('',(0.E0,0.E0,1.E0));
#28=DIRECTION('',(0.E0,-1.E0,0.E0));
#29=AXIS2_PLACEMENT_3D('',#26,#27,#28);
#31=DIRECTION('',(1.E0,0.E0,0.E0));
#32=VECTOR('',#31,1.E1);
#33=CARTESIAN_POINT('',(-2.E1,-2.755E1,0.E0));
#34=LINE('',#33,#32);
#35=CARTESIAN_POINT('',(1.E1,-2.53E1,0.E0));
#36=DIRECTION('',(0.E0,0.E0,1.E0));
#37=DIRECTION('',(0.E0,1.E0,0.E0));
#38=AXIS2_PLACEMENT_3D('',#35,#36,#37);
#40=DIRECTION('',(-1.E0,0.E0,0.E0));
#41=VECTOR('',#40,1.E1);
#42=CARTESIAN_POINT('',(2.E1,-2.305E1,0.E0));
#43=LINE('',#42,#41);
#44=CARTESIAN_POINT('',(2.E1,-2.53E1,0.E0));
#45=DIRECTION('',(0.E0,0.E0,1.E0));
#46=DIRECTION('',(0.E0,-1.E0,0.E0));
#47=AXIS2_PLACEMENT_3D('',#44,#45,#46);
#49=DIRECTION('',(1.E0,0.E0,0.E0));
#50=VECTOR('',#49,1.E1);
#51=CARTESIAN_POINT('',(1.E1,-2.755E1,0.E0));
#52=LINE('',#51,#50);
#53=DIRECTION('',(0.E0,0.E0,-1.E0));
#54=VECTOR('',#53,4.E0);
#55=CARTESIAN_POINT('',(-2.55E1,-2.05E1,7.5E0));
#56=LINE('',#55,#54);
#57=DIRECTION('',(0.E0,1.E0,0.E0));
#58=VECTOR('',#57,1.E1);
#59=CARTESIAN_POINT('',(-2.55E1,-3.05E1,3.5E0));
#60=LINE('',#59,#58);
#61=DIRECTION('',(0.E0,0.E0,1.E0));
#62=VECTOR('',#61,7.5E0);
#63=CARTESIAN_POINT('',(-2.55E1,3.05E1,0.E0));
#64=LINE('',#63,#62);
#65=DIRECTION('',(1.E0,0.E0,0.E0));
#66=VECTOR('',#65,5.1E1);
#67=CARTESIAN_POINT('',(-2.55E1,-2.05E1,3.5E0));
#68=LINE('',#67,#66);
#69=DIRECTION('',(1.E0,0.E0,0.E0));
#70=VECTOR('',#69,5.1E1);
#71=CARTESIAN_POINT('',(-2.55E1,-2.05E1,7.5E0));
#72=LINE('',#71,#70);
#73=DIRECTION('',(0.E0,-1.E0,0.E0));
#74=VECTOR('',#73,5.1E1);
#75=CARTESIAN_POINT('',(-2.55E1,3.05E1,7.5E0));
#76=LINE('',#75,#74);
#77=DIRECTION('',(-1.E0,0.E0,0.E0));
#78=VECTOR('',#77,5.1E1);
#79=CARTESIAN_POINT('',(2.55E1,3.05E1,7.5E0));
#80=LINE('',#79,#78);
#81=DIRECTION('',(0.E0,1.E0,0.E0));
#82=VECTOR('',#81,5.1E1);
#83=CARTESIAN_POINT('',(2.55E1,-2.05E1,7.5E0));
#84=LINE('',#83,#82);
#85=DIRECTION('',(1.E0,0.E0,0.E0));
#86=VECTOR('',#85,5.E1);
#87=CARTESIAN_POINT('',(-2.5E1,-2.E1,7.5E0));
#88=LINE('',#87,#86);
#89=DIRECTION('',(0.E0,1.E0,0.E0));
#90=VECTOR('',#89,5.E1);
#91=CARTESIAN_POINT('',(2.5E1,-2.E1,7.5E0));
#92=LINE('',#91,#90);
#93=DIRECTION('',(-1.E0,0.E0,0.E0));
#94=VECTOR('',#93,5.E1);
#95=CARTESIAN_POINT('',(2.5E1,3.E1,7.5E0));
#96=LINE('',#95,#94);
#97=DIRECTION('',(0.E0,-1.E0,0.E0));
#98=VECTOR('',#97,5.E1);
#99=CARTESIAN_POINT('',(-2.5E1,3.E1,7.5E0));
#100=LINE('',#99,#98);
#101=DIRECTION('',(0.E0,0.E0,1.E0));
#102=VECTOR('',#101,7.5E0);
#103=CARTESIAN_POINT('',(2.55E1,3.05E1,0.E0));
#104=LINE('',#103,#102);
#105=DIRECTION('',(0.E0,0.E0,-1.E0));
#106=VECTOR('',#105,4.E0);
#107=CARTESIAN_POINT('',(2.55E1,-2.05E1,7.5E0));
#108=LINE('',#107,#106);
#109=DIRECTION('',(0.E0,0.E0,1.E0));
#110=VECTOR('',#109,3.5E0);
#111=CARTESIAN_POINT('',(2.55E1,-3.05E1,0.E0));
#112=LINE('',#111,#110);
#113=DIRECTION('',(0.E0,1.E0,0.E0));
#114=VECTOR('',#113,1.E1);
#115=CARTESIAN_POINT('',(2.55E1,-3.05E1,3.5E0));
#116=LINE('',#115,#114);
#117=DIRECTION('',(1.E0,0.E0,0.E0));
#118=VECTOR('',#117,5.1E1);
#119=CARTESIAN_POINT('',(-2.55E1,-3.05E1,3.5E0));
#120=LINE('',#119,#118);
#121=DIRECTION('',(0.E0,0.E0,1.E0));
#122=VECTOR('',#121,3.5E0);
#123=CARTESIAN_POINT('',(-2.55E1,-3.05E1,0.E0));
#124=LINE('',#123,#122);
#125=CARTESIAN_POINT('',(-2.E1,-2.53E1,3.5E0));
#126=DIRECTION('',(0.E0,0.E0,1.E0));
#127=DIRECTION('',(0.E0,1.E0,0.E0));
#128=AXIS2_PLACEMENT_3D('',#125,#126,#127);
#130=DIRECTION('',(1.E0,0.E0,0.E0));
#131=VECTOR('',#130,1.E1);
#132=CARTESIAN_POINT('',(-2.E1,-2.755E1,3.5E0));
#133=LINE('',#132,#131);
#134=CARTESIAN_POINT('',(-1.E1,-2.53E1,3.5E0));
#135=DIRECTION('',(0.E0,0.E0,1.E0));
#136=DIRECTION('',(0.E0,-1.E0,0.E0));
#137=AXIS2_PLACEMENT_3D('',#134,#135,#136);
#139=DIRECTION('',(-1.E0,0.E0,0.E0));
#140=VECTOR('',#139,1.E1);
#141=CARTESIAN_POINT('',(-1.E1,-2.305E1,3.5E0));
#142=LINE('',#141,#140);
#143=CARTESIAN_POINT('',(1.E1,-2.53E1,3.5E0));
#144=DIRECTION('',(0.E0,0.E0,1.E0));
#145=DIRECTION('',(0.E0,1.E0,0.E0));
#146=AXIS2_PLACEMENT_3D('',#143,#144,#145);
#148=DIRECTION('',(1.E0,0.E0,0.E0));
#149=VECTOR('',#148,1.E1);
#150=CARTESIAN_POINT('',(1.E1,-2.755E1,3.5E0));
#151=LINE('',#150,#149);
#152=CARTESIAN_POINT('',(2.E1,-2.53E1,3.5E0));
#153=DIRECTION('',(0.E0,0.E0,1.E0));
#154=DIRECTION('',(0.E0,-1.E0,0.E0));
#155=AXIS2_PLACEMENT_3D('',#152,#153,#154);
#157=DIRECTION('',(-1.E0,0.E0,0.E0));
#158=VECTOR('',#157,1.E1);
#159=CARTESIAN_POINT('',(2.E1,-2.305E1,3.5E0));
#160=LINE('',#159,#158);
#161=DIRECTION('',(0.E0,0.E0,-1.E0));
#162=VECTOR('',#161,3.5E0);
#163=CARTESIAN_POINT('',(-2.E1,-2.305E1,3.5E0));
#164=LINE('',#163,#162);
#165=DIRECTION('',(0.E0,0.E0,-1.E0));
#166=VECTOR('',#165,3.5E0);
#167=CARTESIAN_POINT('',(-2.E1,-2.755E1,3.5E0));
#168=LINE('',#167,#166);
#169=DIRECTION('',(0.E0,0.E0,-1.E0));
#170=VECTOR('',#169,3.5E0);
#171=CARTESIAN_POINT('',(-1.E1,-2.755E1,3.5E0));
#172=LINE('',#171,#170);
#173=DIRECTION('',(0.E0,0.E0,-1.E0));
#174=VECTOR('',#173,3.5E0);
#175=CARTESIAN_POINT('',(-1.E1,-2.305E1,3.5E0));
#176=LINE('',#175,#174);
#177=DIRECTION('',(0.E0,0.E0,-1.E0));
#178=VECTOR('',#177,3.5E0);
#179=CARTESIAN_POINT('',(1.E1,-2.305E1,3.5E0));
#180=LINE('',#179,#178);
#181=DIRECTION('',(0.E0,0.E0,-1.E0));
#182=VECTOR('',#181,3.5E0);
#183=CARTESIAN_POINT('',(1.E1,-2.755E1,3.5E0));
#184=LINE('',#183,#182);
#185=DIRECTION('',(0.E0,0.E0,-1.E0));
#186=VECTOR('',#185,3.5E0);
#187=CARTESIAN_POINT('',(2.E1,-2.755E1,3.5E0));
#188=LINE('',#187,#186);
#189=DIRECTION('',(0.E0,0.E0,-1.E0));
#190=VECTOR('',#189,3.5E0);
#191=CARTESIAN_POINT('',(2.E1,-2.305E1,3.5E0));
#192=LINE('',#191,#190);
#193=DIRECTION('',(0.E0,0.E0,-1.E0));
#194=VECTOR('',#193,2.5E-1);
#195=CARTESIAN_POINT('',(-2.5E1,-2.E1,7.5E0));
#196=LINE('',#195,#194);
#197=DIRECTION('',(0.E0,0.E0,-1.E0));
#198=VECTOR('',#197,2.5E-1);
#199=CARTESIAN_POINT('',(-2.5E1,3.E1,7.5E0));
#200=LINE('',#199,#198);
#201=DIRECTION('',(0.E0,0.E0,-1.E0));
#202=VECTOR('',#201,2.5E-1);
#203=CARTESIAN_POINT('',(2.5E1,3.E1,7.5E0));
#204=LINE('',#203,#202);
#205=DIRECTION('',(0.E0,0.E0,-1.E0));
#206=VECTOR('',#205,2.5E-1);
#207=CARTESIAN_POINT('',(2.5E1,-2.E1,7.5E0));
#208=LINE('',#207,#206);
#209=DIRECTION('',(1.E0,0.E0,0.E0));
#210=VECTOR('',#209,5.E1);
#211=CARTESIAN_POINT('',(-2.5E1,-2.E1,7.25E0));
#212=LINE('',#211,#210);
#213=DIRECTION('',(0.E0,-1.E0,0.E0));
#214=VECTOR('',#213,5.E1);
#215=CARTESIAN_POINT('',(-2.5E1,3.E1,7.25E0));
#216=LINE('',#215,#214);
#217=DIRECTION('',(-1.E0,0.E0,0.E0));
#218=VECTOR('',#217,5.E1);
#219=CARTESIAN_POINT('',(2.5E1,3.E1,7.25E0));
#220=LINE('',#219,#218);
#221=DIRECTION('',(0.E0,1.E0,0.E0));
#222=VECTOR('',#221,5.E1);
#223=CARTESIAN_POINT('',(2.5E1,-2.E1,7.25E0));
#224=LINE('',#223,#222);
#225=CARTESIAN_POINT('',(-2.55E1,3.05E1,0.E0));
#226=CARTESIAN_POINT('',(-2.55E1,-3.05E1,0.E0));
#227=VERTEX_POINT('',#225);
#228=VERTEX_POINT('',#226);
#229=CARTESIAN_POINT('',(2.55E1,-3.05E1,0.E0));
#230=VERTEX_POINT('',#229);
#231=CARTESIAN_POINT('',(2.55E1,3.05E1,0.E0));
#232=VERTEX_POINT('',#231);
#233=CARTESIAN_POINT('',(2.55E1,3.05E1,7.5E0));
#234=CARTESIAN_POINT('',(-2.55E1,3.05E1,7.5E0));
#235=VERTEX_POINT('',#233);
#236=VERTEX_POINT('',#234);
#237=CARTESIAN_POINT('',(-2.55E1,-2.05E1,7.5E0));
#238=CARTESIAN_POINT('',(2.55E1,-2.05E1,7.5E0));
#239=VERTEX_POINT('',#237);
#240=VERTEX_POINT('',#238);
#241=CARTESIAN_POINT('',(-2.55E1,-2.05E1,3.5E0));
#242=VERTEX_POINT('',#241);
#243=CARTESIAN_POINT('',(-2.55E1,-3.05E1,3.5E0));
#244=VERTEX_POINT('',#243);
#245=CARTESIAN_POINT('',(2.55E1,-3.05E1,3.5E0));
#246=VERTEX_POINT('',#245);
#247=CARTESIAN_POINT('',(2.55E1,-2.05E1,3.5E0));
#248=VERTEX_POINT('',#247);
#249=CARTESIAN_POINT('',(-2.E1,-2.305E1,0.E0));
#250=CARTESIAN_POINT('',(-2.E1,-2.755E1,0.E0));
#251=VERTEX_POINT('',#249);
#252=VERTEX_POINT('',#250);
#253=CARTESIAN_POINT('',(-1.E1,-2.755E1,0.E0));
#254=VERTEX_POINT('',#253);
#255=CARTESIAN_POINT('',(-1.E1,-2.305E1,0.E0));
#256=VERTEX_POINT('',#255);
#257=CARTESIAN_POINT('',(1.E1,-2.305E1,0.E0));
#258=CARTESIAN_POINT('',(1.E1,-2.755E1,0.E0));
#259=VERTEX_POINT('',#257);
#260=VERTEX_POINT('',#258);
#261=CARTESIAN_POINT('',(2.E1,-2.755E1,0.E0));
#262=VERTEX_POINT('',#261);
#263=CARTESIAN_POINT('',(2.E1,-2.305E1,0.E0));
#264=VERTEX_POINT('',#263);
#265=CARTESIAN_POINT('',(-2.E1,-2.305E1,3.5E0));
#266=CARTESIAN_POINT('',(-2.E1,-2.755E1,3.5E0));
#267=VERTEX_POINT('',#265);
#268=VERTEX_POINT('',#266);
#269=CARTESIAN_POINT('',(-1.E1,-2.755E1,3.5E0));
#270=VERTEX_POINT('',#269);
#271=CARTESIAN_POINT('',(-1.E1,-2.305E1,3.5E0));
#272=VERTEX_POINT('',#271);
#273=CARTESIAN_POINT('',(1.E1,-2.305E1,3.5E0));
#274=VERTEX_POINT('',#273);
#275=CARTESIAN_POINT('',(1.E1,-2.755E1,3.5E0));
#276=VERTEX_POINT('',#275);
#277=CARTESIAN_POINT('',(2.E1,-2.755E1,3.5E0));
#278=VERTEX_POINT('',#277);
#279=CARTESIAN_POINT('',(2.E1,-2.305E1,3.5E0));
#280=VERTEX_POINT('',#279);
#281=CARTESIAN_POINT('',(-2.5E1,-2.E1,7.25E0));
#282=CARTESIAN_POINT('',(2.5E1,-2.E1,7.25E0));
#283=VERTEX_POINT('',#281);
#284=VERTEX_POINT('',#282);
#285=CARTESIAN_POINT('',(2.5E1,3.E1,7.25E0));
#286=VERTEX_POINT('',#285);
#287=CARTESIAN_POINT('',(-2.5E1,3.E1,7.25E0));
#288=VERTEX_POINT('',#287);
#289=CARTESIAN_POINT('',(-2.5E1,-2.E1,7.5E0));
#290=CARTESIAN_POINT('',(2.5E1,-2.E1,7.5E0));
#291=VERTEX_POINT('',#289);
#292=VERTEX_POINT('',#290);
#293=CARTESIAN_POINT('',(2.5E1,3.E1,7.5E0));
#294=VERTEX_POINT('',#293);
#295=CARTESIAN_POINT('',(-2.5E1,3.E1,7.5E0));
#296=VERTEX_POINT('',#295);
#297=CARTESIAN_POINT('',(0.E0,0.E0,0.E0));
#298=DIRECTION('',(0.E0,0.E0,1.E0));
#299=DIRECTION('',(1.E0,0.E0,0.E0));
#300=AXIS2_PLACEMENT_3D('',#297,#298,#299);
#301=PLANE('',#300);
#303=ORIENTED_EDGE('',*,*,#302,.T.);
#305=ORIENTED_EDGE('',*,*,#304,.T.);
#307=ORIENTED_EDGE('',*,*,#306,.T.);
#309=ORIENTED_EDGE('',*,*,#308,.T.);
#310=EDGE_LOOP('',(#303,#305,#307,#309));
#311=FACE_OUTER_BOUND('',#310,.F.);
#313=ORIENTED_EDGE('',*,*,#312,.F.);
#315=ORIENTED_EDGE('',*,*,#314,.F.);
#317=ORIENTED_EDGE('',*,*,#316,.F.);
#319=ORIENTED_EDGE('',*,*,#318,.F.);
#320=EDGE_LOOP('',(#313,#315,#317,#319));
#321=FACE_BOUND('',#320,.F.);
#323=ORIENTED_EDGE('',*,*,#322,.F.);
#325=ORIENTED_EDGE('',*,*,#324,.F.);
#327=ORIENTED_EDGE('',*,*,#326,.F.);
#329=ORIENTED_EDGE('',*,*,#328,.F.);
#330=EDGE_LOOP('',(#323,#325,#327,#329));
#331=FACE_BOUND('',#330,.F.);
#332=ADVANCED_FACE('',(#311,#321,#331),#301,.F.);
#333=CARTESIAN_POINT('',(-2.55E1,3.05E1,0.E0));
#334=DIRECTION('',(-1.E0,0.E0,0.E0));
#335=DIRECTION('',(0.E0,-1.E0,0.E0));
#336=AXIS2_PLACEMENT_3D('',#333,#334,#335);
#337=PLANE('',#336);
#339=ORIENTED_EDGE('',*,*,#338,.T.);
#341=ORIENTED_EDGE('',*,*,#340,.F.);
#343=ORIENTED_EDGE('',*,*,#342,.F.);
#344=ORIENTED_EDGE('',*,*,#302,.F.);
#346=ORIENTED_EDGE('',*,*,#345,.T.);
#348=ORIENTED_EDGE('',*,*,#347,.T.);
#349=EDGE_LOOP('',(#339,#341,#343,#344,#346,#348));
#350=FACE_OUTER_BOUND('',#349,.F.);
#351=ADVANCED_FACE('',(#350),#337,.T.);
#352=CARTESIAN_POINT('',(2.55E1,-2.05E1,0.E0));
#353=DIRECTION('',(0.E0,-1.E0,0.E0));
#354=DIRECTION('',(1.E0,0.E0,0.E0));
#355=AXIS2_PLACEMENT_3D('',#352,#353,#354);
#356=PLANE('',#355);
#358=ORIENTED_EDGE('',*,*,#357,.T.);
#360=ORIENTED_EDGE('',*,*,#359,.T.);
#362=ORIENTED_EDGE('',*,*,#361,.F.);
#363=ORIENTED_EDGE('',*,*,#338,.F.);
#364=EDGE_LOOP('',(#358,#360,#362,#363));
#365=FACE_OUTER_BOUND('',#364,.F.);
#366=ADVANCED_FACE('',(#365),#356,.T.);
#367=CARTESIAN_POINT('',(0.E0,0.E0,7.5E0));
#368=DIRECTION('',(0.E0,0.E0,1.E0));
#369=DIRECTION('',(1.E0,0.E0,0.E0));
#370=AXIS2_PLACEMENT_3D('',#367,#368,#369);
#371=PLANE('',#370);
#372=ORIENTED_EDGE('',*,*,#357,.F.);
#373=ORIENTED_EDGE('',*,*,#347,.F.);
#375=ORIENTED_EDGE('',*,*,#374,.F.);
#377=ORIENTED_EDGE('',*,*,#376,.F.);
#378=EDGE_LOOP('',(#372,#373,#375,#377));
#379=FACE_OUTER_BOUND('',#378,.F.);
#381=ORIENTED_EDGE('',*,*,#380,.T.);
#383=ORIENTED_EDGE('',*,*,#382,.T.);
#385=ORIENTED_EDGE('',*,*,#384,.T.);
#387=ORIENTED_EDGE('',*,*,#386,.T.);
#388=EDGE_LOOP('',(#381,#383,#385,#387));
#389=FACE_BOUND('',#388,.F.);
#390=ADVANCED_FACE('',(#379,#389),#371,.T.);
#391=CARTESIAN_POINT('',(2.55E1,3.05E1,0.E0));
#392=DIRECTION('',(0.E0,1.E0,0.E0));
#393=DIRECTION('',(-1.E0,0.E0,0.E0));
#394=AXIS2_PLACEMENT_3D('',#391,#392,#393);
#395=PLANE('',#394);
#396=ORIENTED_EDGE('',*,*,#308,.F.);
#398=ORIENTED_EDGE('',*,*,#397,.T.);
#399=ORIENTED_EDGE('',*,*,#374,.T.);
#400=ORIENTED_EDGE('',*,*,#345,.F.);
#401=EDGE_LOOP('',(#396,#398,#399,#400));
#402=FACE_OUTER_BOUND('',#401,.F.);
#403=ADVANCED_FACE('',(#402),#395,.T.);
#404=CARTESIAN_POINT('',(2.55E1,-3.05E1,0.E0));
#405=DIRECTION('',(1.E0,0.E0,0.E0));
#406=DIRECTION('',(0.E0,1.E0,0.E0));
#407=AXIS2_PLACEMENT_3D('',#404,#405,#406);
#408=PLANE('',#407);
#409=ORIENTED_EDGE('',*,*,#359,.F.);
#410=ORIENTED_EDGE('',*,*,#376,.T.);
#411=ORIENTED_EDGE('',*,*,#397,.F.);
#412=ORIENTED_EDGE('',*,*,#306,.F.);
#414=ORIENTED_EDGE('',*,*,#413,.T.);
#416=ORIENTED_EDGE('',*,*,#415,.T.);
#417=EDGE_LOOP('',(#409,#410,#411,#412,#414,#416));
#418=FACE_OUTER_BOUND('',#417,.F.);
#419=ADVANCED_FACE('',(#418),#408,.T.);
#420=CARTESIAN_POINT('',(-2.55E1,-3.05E1,0.E0));
#421=DIRECTION('',(0.E0,-1.E0,0.E0));
#422=DIRECTION('',(1.E0,0.E0,0.E0));
#423=AXIS2_PLACEMENT_3D('',#420,#421,#422);
#424=PLANE('',#423);
#426=ORIENTED_EDGE('',*,*,#425,.T.);
#427=ORIENTED_EDGE('',*,*,#413,.F.);
#428=ORIENTED_EDGE('',*,*,#304,.F.);
#429=ORIENTED_EDGE('',*,*,#342,.T.);
#430=EDGE_LOOP('',(#426,#427,#428,#429));
#431=FACE_OUTER_BOUND('',#430,.F.);
#432=ADVANCED_FACE('',(#431),#424,.T.);
#433=CARTESIAN_POINT('',(-2.55E1,-3.05E1,3.5E0));
#434=DIRECTION('',(0.E0,0.E0,-1.E0));
#435=DIRECTION('',(1.E0,0.E0,0.E0));
#436=AXIS2_PLACEMENT_3D('',#433,#434,#435);
#437=PLANE('',#436);
#438=ORIENTED_EDGE('',*,*,#340,.T.);
#439=ORIENTED_EDGE('',*,*,#361,.T.);
#440=ORIENTED_EDGE('',*,*,#415,.F.);
#441=ORIENTED_EDGE('',*,*,#425,.F.);
#442=EDGE_LOOP('',(#438,#439,#440,#441));
#443=FACE_OUTER_BOUND('',#442,.F.);
#445=ORIENTED_EDGE('',*,*,#444,.T.);
#447=ORIENTED_EDGE('',*,*,#446,.T.);
#449=ORIENTED_EDGE('',*,*,#448,.T.);
#451=ORIENTED_EDGE('',*,*,#450,.T.);
#452=EDGE_LOOP('',(#445,#447,#449,#451));
#453=FACE_BOUND('',#452,.F.);
#455=ORIENTED_EDGE('',*,*,#454,.T.);
#457=ORIENTED_EDGE('',*,*,#456,.T.);
#459=ORIENTED_EDGE('',*,*,#458,.T.);
#461=ORIENTED_EDGE('',*,*,#460,.T.);
#462=EDGE_LOOP('',(#455,#457,#459,#461));
#463=FACE_BOUND('',#462,.F.);
#464=ADVANCED_FACE('',(#443,#453,#463),#437,.F.);
#465=CARTESIAN_POINT('',(-2.E1,-2.53E1,3.5E0));
#466=DIRECTION('',(0.E0,0.E0,1.E0));
#467=DIRECTION('',(1.E0,0.E0,0.E0));
#468=AXIS2_PLACEMENT_3D('',#465,#466,#467);
#469=CYLINDRICAL_SURFACE('',#468,2.25E0);
#470=ORIENTED_EDGE('',*,*,#312,.T.);
#472=ORIENTED_EDGE('',*,*,#471,.F.);
#473=ORIENTED_EDGE('',*,*,#444,.F.);
#475=ORIENTED_EDGE('',*,*,#474,.T.);
#476=EDGE_LOOP('',(#470,#472,#473,#475));
#477=FACE_OUTER_BOUND('',#476,.F.);
#478=ADVANCED_FACE('',(#477),#469,.F.);
#479=CARTESIAN_POINT('',(-2.E1,-2.755E1,3.5E0));
#480=DIRECTION('',(0.E0,-1.E0,0.E0));
#481=DIRECTION('',(1.E0,0.E0,0.E0));
#482=AXIS2_PLACEMENT_3D('',#479,#480,#481);
#483=PLANE('',#482);
#484=ORIENTED_EDGE('',*,*,#318,.T.);
#486=ORIENTED_EDGE('',*,*,#485,.F.);
#487=ORIENTED_EDGE('',*,*,#446,.F.);
#488=ORIENTED_EDGE('',*,*,#471,.T.);
#489=EDGE_LOOP('',(#484,#486,#487,#488));
#490=FACE_OUTER_BOUND('',#489,.F.);
#491=ADVANCED_FACE('',(#490),#483,.F.);
#492=CARTESIAN_POINT('',(-1.E1,-2.53E1,3.5E0));
#493=DIRECTION('',(0.E0,0.E0,1.E0));
#494=DIRECTION('',(1.E0,0.E0,0.E0));
#495=AXIS2_PLACEMENT_3D('',#492,#493,#494);
#496=CYLINDRICAL_SURFACE('',#495,2.25E0);
#497=ORIENTED_EDGE('',*,*,#316,.T.);
#499=ORIENTED_EDGE('',*,*,#498,.F.);
#500=ORIENTED_EDGE('',*,*,#448,.F.);
#501=ORIENTED_EDGE('',*,*,#485,.T.);
#502=EDGE_LOOP('',(#497,#499,#500,#501));
#503=FACE_OUTER_BOUND('',#502,.F.);
#504=ADVANCED_FACE('',(#503),#496,.F.);
#505=CARTESIAN_POINT('',(-1.E1,-2.305E1,3.5E0));
#506=DIRECTION('',(0.E0,1.E0,0.E0));
#507=DIRECTION('',(-1.E0,0.E0,0.E0));
#508=AXIS2_PLACEMENT_3D('',#505,#506,#507);
#509=PLANE('',#508);
#510=ORIENTED_EDGE('',*,*,#314,.T.);
#511=ORIENTED_EDGE('',*,*,#474,.F.);
#512=ORIENTED_EDGE('',*,*,#450,.F.);
#513=ORIENTED_EDGE('',*,*,#498,.T.);
#514=EDGE_LOOP('',(#510,#511,#512,#513));
#515=FACE_OUTER_BOUND('',#514,.F.);
#516=ADVANCED_FACE('',(#515),#509,.F.);
#517=CARTESIAN_POINT('',(1.E1,-2.53E1,3.5E0));
#518=DIRECTION('',(0.E0,0.E0,1.E0));
#519=DIRECTION('',(1.E0,0.E0,0.E0));
#520=AXIS2_PLACEMENT_3D('',#517,#518,#519);
#521=CYLINDRICAL_SURFACE('',#520,2.25E0);
#522=ORIENTED_EDGE('',*,*,#322,.T.);
#524=ORIENTED_EDGE('',*,*,#523,.F.);
#525=ORIENTED_EDGE('',*,*,#454,.F.);
#527=ORIENTED_EDGE('',*,*,#526,.T.);
#528=EDGE_LOOP('',(#522,#524,#525,#527));
#529=FACE_OUTER_BOUND('',#528,.F.);
#530=ADVANCED_FACE('',(#529),#521,.F.);
#531=CARTESIAN_POINT('',(1.E1,-2.755E1,3.5E0));
#532=DIRECTION('',(0.E0,-1.E0,0.E0));
#533=DIRECTION('',(1.E0,0.E0,0.E0));
#534=AXIS2_PLACEMENT_3D('',#531,#532,#533);
#535=PLANE('',#534);
#536=ORIENTED_EDGE('',*,*,#328,.T.);
#538=ORIENTED_EDGE('',*,*,#537,.F.);
#539=ORIENTED_EDGE('',*,*,#456,.F.);
#540=ORIENTED_EDGE('',*,*,#523,.T.);
#541=EDGE_LOOP('',(#536,#538,#539,#540));
#542=FACE_OUTER_BOUND('',#541,.F.);
#543=ADVANCED_FACE('',(#542),#535,.F.);
#544=CARTESIAN_POINT('',(2.E1,-2.53E1,3.5E0));
#545=DIRECTION('',(0.E0,0.E0,1.E0));
#546=DIRECTION('',(1.E0,0.E0,0.E0));
#547=AXIS2_PLACEMENT_3D('',#544,#545,#546);
#548=CYLINDRICAL_SURFACE('',#547,2.25E0);
#549=ORIENTED_EDGE('',*,*,#326,.T.);
#551=ORIENTED_EDGE('',*,*,#550,.F.);
#552=ORIENTED_EDGE('',*,*,#458,.F.);
#553=ORIENTED_EDGE('',*,*,#537,.T.);
#554=EDGE_LOOP('',(#549,#551,#552,#553));
#555=FACE_OUTER_BOUND('',#554,.F.);
#556=ADVANCED_FACE('',(#555),#548,.F.);
#557=CARTESIAN_POINT('',(2.E1,-2.305E1,3.5E0));
#558=DIRECTION('',(0.E0,1.E0,0.E0));
#559=DIRECTION('',(-1.E0,0.E0,0.E0));
#560=AXIS2_PLACEMENT_3D('',#557,#558,#559);
#561=PLANE('',#560);
#562=ORIENTED_EDGE('',*,*,#324,.T.);
#563=ORIENTED_EDGE('',*,*,#526,.F.);
#564=ORIENTED_EDGE('',*,*,#460,.F.);
#565=ORIENTED_EDGE('',*,*,#550,.T.);
#566=EDGE_LOOP('',(#562,#563,#564,#565));
#567=FACE_OUTER_BOUND('',#566,.F.);
#568=ADVANCED_FACE('',(#567),#561,.F.);
#569=CARTESIAN_POINT('',(-2.5E1,-2.E1,7.5E0));
#570=DIRECTION('',(0.E0,-1.E0,0.E0));
#571=DIRECTION('',(1.E0,0.E0,0.E0));
#572=AXIS2_PLACEMENT_3D('',#569,#570,#571);
#573=PLANE('',#572);
#574=ORIENTED_EDGE('',*,*,#380,.F.);
#576=ORIENTED_EDGE('',*,*,#575,.T.);
#578=ORIENTED_EDGE('',*,*,#577,.T.);
#580=ORIENTED_EDGE('',*,*,#579,.F.);
#581=EDGE_LOOP('',(#574,#576,#578,#580));
#582=FACE_OUTER_BOUND('',#581,.F.);
#583=ADVANCED_FACE('',(#582),#573,.F.);
#584=CARTESIAN_POINT('',(-2.5E1,3.E1,7.5E0));
#585=DIRECTION('',(-1.E0,0.E0,0.E0));
#586=DIRECTION('',(0.E0,-1.E0,0.E0));
#587=AXIS2_PLACEMENT_3D('',#584,#585,#586);
#588=PLANE('',#587);
#589=ORIENTED_EDGE('',*,*,#386,.F.);
#591=ORIENTED_EDGE('',*,*,#590,.T.);
#593=ORIENTED_EDGE('',*,*,#592,.T.);
#594=ORIENTED_EDGE('',*,*,#575,.F.);
#595=EDGE_LOOP('',(#589,#591,#593,#594));
#596=FACE_OUTER_BOUND('',#595,.F.);
#597=ADVANCED_FACE('',(#596),#588,.F.);
#598=CARTESIAN_POINT('',(2.5E1,3.E1,7.5E0));
#599=DIRECTION('',(0.E0,1.E0,0.E0));
#600=DIRECTION('',(-1.E0,0.E0,0.E0));
#601=AXIS2_PLACEMENT_3D('',#598,#599,#600);
#602=PLANE('',#601);
#603=ORIENTED_EDGE('',*,*,#384,.F.);
#605=ORIENTED_EDGE('',*,*,#604,.T.);
#607=ORIENTED_EDGE('',*,*,#606,.T.);
#608=ORIENTED_EDGE('',*,*,#590,.F.);
#609=EDGE_LOOP('',(#603,#605,#607,#608));
#610=FACE_OUTER_BOUND('',#609,.F.);
#611=ADVANCED_FACE('',(#610),#602,.F.);
#612=CARTESIAN_POINT('',(2.5E1,-2.E1,7.5E0));
#613=DIRECTION('',(1.E0,0.E0,0.E0));
#614=DIRECTION('',(0.E0,1.E0,0.E0));
#615=AXIS2_PLACEMENT_3D('',#612,#613,#614);
#616=PLANE('',#615);
#617=ORIENTED_EDGE('',*,*,#382,.F.);
#618=ORIENTED_EDGE('',*,*,#579,.T.);
#620=ORIENTED_EDGE('',*,*,#619,.T.);
#621=ORIENTED_EDGE('',*,*,#604,.F.);
#622=EDGE_LOOP('',(#617,#618,#620,#621));
#623=FACE_OUTER_BOUND('',#622,.F.);
#624=ADVANCED_FACE('',(#623),#616,.F.);
#625=CARTESIAN_POINT('',(0.E0,0.E0,7.25E0));
#626=DIRECTION('',(0.E0,0.E0,1.E0));
#627=DIRECTION('',(1.E0,0.E0,0.E0));
#628=AXIS2_PLACEMENT_3D('',#625,#626,#627);
#629=PLANE('',#628);
#630=ORIENTED_EDGE('',*,*,#577,.F.);
#631=ORIENTED_EDGE('',*,*,#592,.F.);
#632=ORIENTED_EDGE('',*,*,#606,.F.);
#633=ORIENTED_EDGE('',*,*,#619,.F.);
#634=EDGE_LOOP('',(#630,#631,#632,#633));
#635=FACE_OUTER_BOUND('',#634,.F.);
#636=ADVANCED_FACE('',(#635),#629,.T.);
#637=CLOSED_SHELL('',(#332,#351,#366,#390,#403,#419,#432,#464,#478,#491,#504,
#516,#530,#543,#556,#568,#583,#597,#611,#624,#636));
#638=MANIFOLD_SOLID_BREP('',#637);
#640=DIMENSIONAL_EXPONENTS(0.E0,0.E0,0.E0,0.E0,0.E0,0.E0,0.E0);
#642=PLANE_ANGLE_MEASURE_WITH_UNIT(PLANE_ANGLE_MEASURE(1.745329251994E-2),#641);
#643=(CONVERSION_BASED_UNIT('DEGREE',#642)NAMED_UNIT(*)PLANE_ANGLE_UNIT());
#645=UNCERTAINTY_MEASURE_WITH_UNIT(LENGTH_MEASURE(8.745860759605E-3),#639,
'closure',
'Maximum model space distance between geometric entities at asserted connectivities');
#646=(GEOMETRIC_REPRESENTATION_CONTEXT(3)GLOBAL_UNCERTAINTY_ASSIGNED_CONTEXT((
#645))GLOBAL_UNIT_ASSIGNED_CONTEXT((#639,#643,#644))REPRESENTATION_CONTEXT
('ID1','3'));
#647=CARTESIAN_POINT('',(0.E0,0.E0,0.E0));
#648=DIRECTION('',(0.E0,0.E0,1.E0));
#649=DIRECTION('',(1.E0,0.E0,0.E0));
#652=APPLICATION_CONTEXT(
'CONFIGURATION CONTROLLED 3D DESIGNS OF MECHANICAL PARTS AND ASSEMBLIES');
#653=APPLICATION_PROTOCOL_DEFINITION('international standard',
'config_control_design',1994,#652);
#654=DESIGN_CONTEXT('',#652,'design');
#655=MECHANICAL_CONTEXT('',#652,'mechanical');
#656=PRODUCT('83392','83392','NOT SPECIFIED',(#655));
#657=PRODUCT_DEFINITION_FORMATION_WITH_SPECIFIED_SOURCE('1','LAST_VERSION',#656,
.MADE.);
#666=CARTESIAN_POINT('',(0.E0,0.E0,0.E0));
#667=DIRECTION('',(0.E0,0.E0,1.E0));
#668=DIRECTION('',(1.E0,0.E0,0.E0));
#669=AXIS2_PLACEMENT_3D('',#666,#667,#668);
#670=ITEM_DEFINED_TRANSFORMATION('','',#650,#669);
#671=(REPRESENTATION_RELATIONSHIP('','',#651,#663)REPRESENTATION_RELATIONSHIP_WITH_TRANSFORMATION(#670)SHAPE_REPRESENTATION_RELATIONSHIP());
#672=CONTEXT_DEPENDENT_SHAPE_REPRESENTATION(#671,#665);
#674=DIMENSIONAL_EXPONENTS(0.E0,0.E0,0.E0,0.E0,0.E0,0.E0,0.E0);
#676=PLANE_ANGLE_MEASURE_WITH_UNIT(PLANE_ANGLE_MEASURE(1.745329251994E-2),#675);
#677=(CONVERSION_BASED_UNIT('DEGREE',#676)NAMED_UNIT(*)PLANE_ANGLE_UNIT());
#679=UNCERTAINTY_MEASURE_WITH_UNIT(LENGTH_MEASURE(7.986075225169E-3),#673,
'closure',
'Maximum model space distance between geometric entities at asserted connectivities');
#680=(GEOMETRIC_REPRESENTATION_CONTEXT(3)GLOBAL_UNCERTAINTY_ASSIGNED_CONTEXT((
#679))GLOBAL_UNIT_ASSIGNED_CONTEXT((#673,#677,#678))REPRESENTATION_CONTEXT
('ID2','3'));
#681=CARTESIAN_POINT('',(0.E0,0.E0,0.E0));
#682=DIRECTION('',(0.E0,0.E0,1.E0));
#683=DIRECTION('',(1.E0,0.E0,0.E0));
#685=MECHANICAL_CONTEXT('',#652,'mechanical');
#686=PRODUCT('214999_ASM','214999_ASM','NOT SPECIFIED',(#685));
#687=PRODUCT_DEFINITION_FORMATION_WITH_SPECIFIED_SOURCE('1','LAST_VERSION',#686,
.MADE.);
#689=PRODUCT_CATEGORY('part','');
#690=PRODUCT_RELATED_PRODUCT_CATEGORY('assembly','',(#686));
#691=PRODUCT_CATEGORY_RELATIONSHIP('','',#689,#690);
#692=PRODUCT_CATEGORY('part','');
#693=PRODUCT_RELATED_PRODUCT_CATEGORY('detail','',(#656));
#694=PRODUCT_CATEGORY_RELATIONSHIP('','',#692,#693);
#695=SECURITY_CLASSIFICATION_LEVEL('unclassified');
#696=SECURITY_CLASSIFICATION('','',#695);
#697=CC_DESIGN_SECURITY_CLASSIFICATION(#696,(#657,#687,#664));
#698=APPROVAL_STATUS('approved');
#699=APPROVAL(#698,'');
#700=CC_DESIGN_APPROVAL(#699,(#696,#657,#687,#658,#688));
#701=CALENDAR_DATE(119,1,11);
#702=COORDINATED_UNIVERSAL_TIME_OFFSET(5,0,.BEHIND.);
#703=LOCAL_TIME(11,2,1.8E1,#702);
#704=DATE_AND_TIME(#701,#703);
#705=APPROVAL_DATE_TIME(#704,#699);
#706=DATE_TIME_ROLE('creation_date');
#707=CC_DESIGN_DATE_AND_TIME_ASSIGNMENT(#704,#706,(#658,#688));
#708=DATE_TIME_ROLE('classification_date');
#709=CC_DESIGN_DATE_AND_TIME_ASSIGNMENT(#704,#708,(#696));
#710=PERSON('UNSPECIFIED','UNSPECIFIED',$,$,$,$);
#711=ORGANIZATION('UNSPECIFIED','UNSPECIFIED','UNSPECIFIED');
#712=PERSON_AND_ORGANIZATION(#710,#711);
#713=APPROVAL_ROLE('approver');
#714=APPROVAL_PERSON_ORGANIZATION(#712,#699,#713);
#715=PERSON_AND_ORGANIZATION_ROLE('creator');
#716=CC_DESIGN_PERSON_AND_ORGANIZATION_ASSIGNMENT(#712,#715,(#657,#687,#658,
#688));
#717=PERSON_AND_ORGANIZATION_ROLE('design_supplier');
#718=CC_DESIGN_PERSON_AND_ORGANIZATION_ASSIGNMENT(#712,#717,(#657,#687));
#719=PERSON_AND_ORGANIZATION_ROLE('classification_officer');
#720=CC_DESIGN_PERSON_AND_ORGANIZATION_ASSIGNMENT(#712,#719,(#696));
#721=PERSON_AND_ORGANIZATION_ROLE('design_owner');
#722=CC_DESIGN_PERSON_AND_ORGANIZATION_ASSIGNMENT(#712,#721,(#686,#656));
#21=CIRCLE('',#20,2.25E0);
#30=CIRCLE('',#29,2.25E0);
#39=CIRCLE('',#38,2.25E0);
#48=CIRCLE('',#47,2.25E0);
#129=CIRCLE('',#128,2.25E0);
#138=CIRCLE('',#137,2.25E0);
#147=CIRCLE('',#146,2.25E0);
#156=CIRCLE('',#155,2.25E0);
#302=EDGE_CURVE('',#227,#228,#4,.T.);
#304=EDGE_CURVE('',#228,#230,#8,.T.);
#306=EDGE_CURVE('',#230,#232,#12,.T.);
#308=EDGE_CURVE('',#232,#227,#16,.T.);
#312=EDGE_CURVE('',#251,#252,#21,.T.);
#314=EDGE_CURVE('',#256,#251,#25,.T.);
#316=EDGE_CURVE('',#254,#256,#30,.T.);
#318=EDGE_CURVE('',#252,#254,#34,.T.);
#322=EDGE_CURVE('',#259,#260,#39,.T.);
#324=EDGE_CURVE('',#264,#259,#43,.T.);
#326=EDGE_CURVE('',#262,#264,#48,.T.);
#328=EDGE_CURVE('',#260,#262,#52,.T.);
#338=EDGE_CURVE('',#239,#242,#56,.T.);
#340=EDGE_CURVE('',#244,#242,#60,.T.);
#342=EDGE_CURVE('',#228,#244,#124,.T.);
#345=EDGE_CURVE('',#227,#236,#64,.T.);
#347=EDGE_CURVE('',#236,#239,#76,.T.);
#357=EDGE_CURVE('',#239,#240,#72,.T.);
#359=EDGE_CURVE('',#240,#248,#108,.T.);
#361=EDGE_CURVE('',#242,#248,#68,.T.);
#374=EDGE_CURVE('',#235,#236,#80,.T.);
#376=EDGE_CURVE('',#240,#235,#84,.T.);
#380=EDGE_CURVE('',#291,#292,#88,.T.);
#382=EDGE_CURVE('',#292,#294,#92,.T.);
#384=EDGE_CURVE('',#294,#296,#96,.T.);
#386=EDGE_CURVE('',#296,#291,#100,.T.);
#397=EDGE_CURVE('',#232,#235,#104,.T.);
#413=EDGE_CURVE('',#230,#246,#112,.T.);
#415=EDGE_CURVE('',#246,#248,#116,.T.);
#425=EDGE_CURVE('',#244,#246,#120,.T.);
#444=EDGE_CURVE('',#267,#268,#129,.T.);
#446=EDGE_CURVE('',#268,#270,#133,.T.);
#448=EDGE_CURVE('',#270,#272,#138,.T.);
#450=EDGE_CURVE('',#272,#267,#142,.T.);
#454=EDGE_CURVE('',#274,#276,#147,.T.);
#456=EDGE_CURVE('',#276,#278,#151,.T.);
#458=EDGE_CURVE('',#278,#280,#156,.T.);
#460=EDGE_CURVE('',#280,#274,#160,.T.);
#471=EDGE_CURVE('',#268,#252,#168,.T.);
#474=EDGE_CURVE('',#267,#251,#164,.T.);
#485=EDGE_CURVE('',#270,#254,#172,.T.);
#498=EDGE_CURVE('',#272,#256,#176,.T.);
#523=EDGE_CURVE('',#276,#260,#184,.T.);
#526=EDGE_CURVE('',#274,#259,#180,.T.);
#537=EDGE_CURVE('',#278,#262,#188,.T.);
#550=EDGE_CURVE('',#280,#264,#192,.T.);
#575=EDGE_CURVE('',#291,#283,#196,.T.);
#577=EDGE_CURVE('',#283,#284,#212,.T.);
#579=EDGE_CURVE('',#292,#284,#208,.T.);
#590=EDGE_CURVE('',#296,#288,#200,.T.);
#592=EDGE_CURVE('',#288,#283,#216,.T.);
#604=EDGE_CURVE('',#294,#286,#204,.T.);
#606=EDGE_CURVE('',#286,#288,#220,.T.);
#619=EDGE_CURVE('',#284,#286,#224,.T.);
#639=(LENGTH_UNIT()NAMED_UNIT(*)SI_UNIT(.MILLI.,.METRE.));
#641=(NAMED_UNIT(*)PLANE_ANGLE_UNIT()SI_UNIT($,.RADIAN.));
#644=(NAMED_UNIT(*)SI_UNIT($,.STERADIAN.)SOLID_ANGLE_UNIT());
#650=AXIS2_PLACEMENT_3D('',#647,#648,#649);
#651=ADVANCED_BREP_SHAPE_REPRESENTATION('',(#650,#638),#646);
#658=PRODUCT_DEFINITION('design','',#657,#654);
#659=PRODUCT_DEFINITION_SHAPE('','SHAPE FOR 83392.',#658);
#660=SHAPE_DEFINITION_REPRESENTATION(#659,#651);
#661=SHAPE_DEFINITION_REPRESENTATION(#662,#663);
#662=PRODUCT_DEFINITION_SHAPE('','SHAPE FOR 214999_ASM.',#688);
#663=SHAPE_REPRESENTATION('',(#669,#684),#680);
#664=NEXT_ASSEMBLY_USAGE_OCCURRENCE('0','Next assembly relationship','83392',
#688,#658,$);
#665=PRODUCT_DEFINITION_SHAPE('Placement #0',
'Placement of 83392 with respect to 214999_ASM',#664);
#673=(LENGTH_UNIT()NAMED_UNIT(*)SI_UNIT(.MILLI.,.METRE.));
#675=(NAMED_UNIT(*)PLANE_ANGLE_UNIT()SI_UNIT($,.RADIAN.));
#678=(NAMED_UNIT(*)SI_UNIT($,.STERADIAN.)SOLID_ANGLE_UNIT());
#684=AXIS2_PLACEMENT_3D('',#681,#682,#683);
#688=PRODUCT_DEFINITION('design','',#687,#654);
ENDSEC;
END-ISO-10303-21;
