ISO-10303-21;
HEADER;
FILE_DESCRIPTION((''),'2;1');
FILE_NAME('214202_ASM','2019-09-25T13:54:24',('pdmadmin'),
('BANNER ENGINEERING'),'CREO PARAMETRIC BY PTC INC, 2018300',
'CREO PARAMETRIC BY PTC INC, 2018300','');
FILE_SCHEMA(('CONFIG_CONTROL_DESIGN'));
ENDSEC;
DATA;
#1=CARTESIAN_POINT('',(0.E0,0.E0,0.E0));
#2=DIRECTION('',(0.E0,0.E0,1.E0));
#3=DIRECTION('',(1.E0,0.E0,0.E0));
#4=AXIS2_PLACEMENT_3D('',#1,#2,#3);
#6=CARTESIAN_POINT('',(0.E0,0.E0,0.E0));
#7=DIRECTION('',(0.E0,0.E0,1.E0));
#8=DIRECTION('',(-1.E0,0.E0,0.E0));
#9=AXIS2_PLACEMENT_3D('',#6,#7,#8);
#11=CARTESIAN_POINT('',(0.E0,0.E0,0.E0));
#12=DIRECTION('',(0.E0,0.E0,1.E0));
#13=DIRECTION('',(1.E0,0.E0,0.E0));
#14=AXIS2_PLACEMENT_3D('',#11,#12,#13);
#16=CARTESIAN_POINT('',(0.E0,0.E0,0.E0));
#17=DIRECTION('',(0.E0,0.E0,1.E0));
#18=DIRECTION('',(-1.E0,0.E0,0.E0));
#19=AXIS2_PLACEMENT_3D('',#16,#17,#18);
#21=DIRECTION('',(0.E0,0.E0,1.E0));
#22=VECTOR('',#21,7.3E0);
#23=CARTESIAN_POINT('',(3.025E1,0.E0,0.E0));
#24=LINE('',#23,#22);
#25=DIRECTION('',(0.E0,0.E0,1.E0));
#26=VECTOR('',#25,7.3E0);
#27=CARTESIAN_POINT('',(-3.025E1,0.E0,0.E0));
#28=LINE('',#27,#26);
#29=CARTESIAN_POINT('',(0.E0,0.E0,7.3E0));
#30=DIRECTION('',(0.E0,0.E0,1.E0));
#31=DIRECTION('',(1.E0,0.E0,0.E0));
#32=AXIS2_PLACEMENT_3D('',#29,#30,#31);
#34=CARTESIAN_POINT('',(0.E0,0.E0,7.3E0));
#35=DIRECTION('',(0.E0,0.E0,1.E0));
#36=DIRECTION('',(-1.E0,0.E0,0.E0));
#37=AXIS2_PLACEMENT_3D('',#34,#35,#36);
#39=CARTESIAN_POINT('',(0.E0,0.E0,7.3E0));
#40=DIRECTION('',(0.E0,0.E0,1.E0));
#41=DIRECTION('',(1.E0,0.E0,0.E0));
#42=AXIS2_PLACEMENT_3D('',#39,#40,#41);
#44=CARTESIAN_POINT('',(0.E0,0.E0,7.3E0));
#45=DIRECTION('',(0.E0,0.E0,1.E0));
#46=DIRECTION('',(-1.E0,0.E0,0.E0));
#47=AXIS2_PLACEMENT_3D('',#44,#45,#46);
#49=CARTESIAN_POINT('',(0.E0,0.E0,7.3E0));
#50=DIRECTION('',(0.E0,0.E0,1.E0));
#51=DIRECTION('',(1.E0,0.E0,0.E0));
#52=AXIS2_PLACEMENT_3D('',#49,#50,#51);
#54=CARTESIAN_POINT('',(0.E0,0.E0,7.3E0));
#55=DIRECTION('',(0.E0,0.E0,1.E0));
#56=DIRECTION('',(-1.E0,0.E0,0.E0));
#57=AXIS2_PLACEMENT_3D('',#54,#55,#56);
#59=CARTESIAN_POINT('',(0.E0,0.E0,7.3E0));
#60=DIRECTION('',(0.E0,0.E0,1.E0));
#61=DIRECTION('',(-1.E0,0.E0,0.E0));
#62=AXIS2_PLACEMENT_3D('',#59,#60,#61);
#64=CARTESIAN_POINT('',(0.E0,0.E0,7.3E0));
#65=DIRECTION('',(0.E0,0.E0,1.E0));
#66=DIRECTION('',(1.E0,0.E0,0.E0));
#67=AXIS2_PLACEMENT_3D('',#64,#65,#66);
#69=DIRECTION('',(0.E0,0.E0,-1.E0));
#70=VECTOR('',#69,7.3E0);
#71=CARTESIAN_POINT('',(3.15E0,0.E0,7.3E0));
#72=LINE('',#71,#70);
#73=DIRECTION('',(0.E0,0.E0,-1.E0));
#74=VECTOR('',#73,7.3E0);
#75=CARTESIAN_POINT('',(-3.15E0,0.E0,7.3E0));
#76=LINE('',#75,#74);
#77=DIRECTION('',(0.E0,0.E0,-1.E0));
#78=VECTOR('',#77,2.5E-1);
#79=CARTESIAN_POINT('',(2.9625E1,0.E0,7.3E0));
#80=LINE('',#79,#78);
#81=DIRECTION('',(0.E0,0.E0,-1.E0));
#82=VECTOR('',#81,2.5E-1);
#83=CARTESIAN_POINT('',(-2.9625E1,0.E0,7.3E0));
#84=LINE('',#83,#82);
#85=CARTESIAN_POINT('',(0.E0,0.E0,7.05E0));
#86=DIRECTION('',(0.E0,0.E0,1.E0));
#87=DIRECTION('',(1.E0,0.E0,0.E0));
#88=AXIS2_PLACEMENT_3D('',#85,#86,#87);
#90=CARTESIAN_POINT('',(0.E0,0.E0,7.05E0));
#91=DIRECTION('',(0.E0,0.E0,1.E0));
#92=DIRECTION('',(-1.E0,0.E0,0.E0));
#93=AXIS2_PLACEMENT_3D('',#90,#91,#92);
#95=CARTESIAN_POINT('',(0.E0,0.E0,7.05E0));
#96=DIRECTION('',(0.E0,0.E0,-1.E0));
#97=DIRECTION('',(1.E0,0.E0,0.E0));
#98=AXIS2_PLACEMENT_3D('',#95,#96,#97);
#100=CARTESIAN_POINT('',(0.E0,0.E0,7.05E0));
#101=DIRECTION('',(0.E0,0.E0,-1.E0));
#102=DIRECTION('',(-1.E0,0.E0,0.E0));
#103=AXIS2_PLACEMENT_3D('',#100,#101,#102);
#105=DIRECTION('',(0.E0,0.E0,-1.E0));
#106=VECTOR('',#105,2.5E-1);
#107=CARTESIAN_POINT('',(4.65E0,0.E0,7.3E0));
#108=LINE('',#107,#106);
#109=DIRECTION('',(0.E0,0.E0,-1.E0));
#110=VECTOR('',#109,2.5E-1);
#111=CARTESIAN_POINT('',(-4.65E0,0.E0,7.3E0));
#112=LINE('',#111,#110);
#113=CARTESIAN_POINT('',(3.025E1,0.E0,0.E0));
#114=CARTESIAN_POINT('',(-3.025E1,0.E0,0.E0));
#115=VERTEX_POINT('',#113);
#116=VERTEX_POINT('',#114);
#117=CARTESIAN_POINT('',(3.025E1,0.E0,7.3E0));
#118=CARTESIAN_POINT('',(-3.025E1,0.E0,7.3E0));
#119=VERTEX_POINT('',#117);
#120=VERTEX_POINT('',#118);
#121=CARTESIAN_POINT('',(3.15E0,0.E0,7.3E0));
#122=CARTESIAN_POINT('',(-3.15E0,0.E0,7.3E0));
#123=VERTEX_POINT('',#121);
#124=VERTEX_POINT('',#122);
#125=CARTESIAN_POINT('',(3.15E0,0.E0,0.E0));
#126=VERTEX_POINT('',#125);
#127=CARTESIAN_POINT('',(-3.15E0,0.E0,0.E0));
#128=VERTEX_POINT('',#127);
#129=CARTESIAN_POINT('',(2.9625E1,0.E0,7.05E0));
#130=CARTESIAN_POINT('',(-2.9625E1,0.E0,7.05E0));
#131=VERTEX_POINT('',#129);
#132=VERTEX_POINT('',#130);
#133=CARTESIAN_POINT('',(4.65E0,0.E0,7.05E0));
#134=CARTESIAN_POINT('',(-4.65E0,0.E0,7.05E0));
#135=VERTEX_POINT('',#133);
#136=VERTEX_POINT('',#134);
#137=CARTESIAN_POINT('',(2.9625E1,0.E0,7.3E0));
#138=CARTESIAN_POINT('',(-2.9625E1,0.E0,7.3E0));
#139=VERTEX_POINT('',#137);
#140=VERTEX_POINT('',#138);
#141=CARTESIAN_POINT('',(-4.65E0,0.E0,7.3E0));
#142=CARTESIAN_POINT('',(4.65E0,0.E0,7.3E0));
#143=VERTEX_POINT('',#141);
#144=VERTEX_POINT('',#142);
#145=CARTESIAN_POINT('',(0.E0,0.E0,0.E0));
#146=DIRECTION('',(0.E0,0.E0,1.E0));
#147=DIRECTION('',(1.E0,0.E0,0.E0));
#148=AXIS2_PLACEMENT_3D('',#145,#146,#147);
#149=PLANE('',#148);
#151=ORIENTED_EDGE('',*,*,#150,.T.);
#153=ORIENTED_EDGE('',*,*,#152,.T.);
#154=EDGE_LOOP('',(#151,#153));
#155=FACE_OUTER_BOUND('',#154,.F.);
#157=ORIENTED_EDGE('',*,*,#156,.F.);
#159=ORIENTED_EDGE('',*,*,#158,.F.);
#160=EDGE_LOOP('',(#157,#159));
#161=FACE_BOUND('',#160,.F.);
#162=ADVANCED_FACE('',(#155,#161),#149,.F.);
#163=CARTESIAN_POINT('',(0.E0,0.E0,0.E0));
#164=DIRECTION('',(0.E0,0.E0,1.E0));
#165=DIRECTION('',(1.E0,0.E0,0.E0));
#166=AXIS2_PLACEMENT_3D('',#163,#164,#165);
#167=CYLINDRICAL_SURFACE('',#166,3.025E1);
#168=ORIENTED_EDGE('',*,*,#150,.F.);
#170=ORIENTED_EDGE('',*,*,#169,.T.);
#172=ORIENTED_EDGE('',*,*,#171,.T.);
#174=ORIENTED_EDGE('',*,*,#173,.F.);
#175=EDGE_LOOP('',(#168,#170,#172,#174));
#176=FACE_OUTER_BOUND('',#175,.F.);
#177=ADVANCED_FACE('',(#176),#167,.T.);
#178=CARTESIAN_POINT('',(0.E0,0.E0,0.E0));
#179=DIRECTION('',(0.E0,0.E0,1.E0));
#180=DIRECTION('',(1.E0,0.E0,0.E0));
#181=AXIS2_PLACEMENT_3D('',#178,#179,#180);
#182=CYLINDRICAL_SURFACE('',#181,3.025E1);
#183=ORIENTED_EDGE('',*,*,#152,.F.);
#184=ORIENTED_EDGE('',*,*,#173,.T.);
#186=ORIENTED_EDGE('',*,*,#185,.T.);
#187=ORIENTED_EDGE('',*,*,#169,.F.);
#188=EDGE_LOOP('',(#183,#184,#186,#187));
#189=FACE_OUTER_BOUND('',#188,.F.);
#190=ADVANCED_FACE('',(#189),#182,.T.);
#191=CARTESIAN_POINT('',(0.E0,0.E0,7.3E0));
#192=DIRECTION('',(0.E0,0.E0,1.E0));
#193=DIRECTION('',(1.E0,0.E0,0.E0));
#194=AXIS2_PLACEMENT_3D('',#191,#192,#193);
#195=PLANE('',#194);
#196=ORIENTED_EDGE('',*,*,#171,.F.);
#197=ORIENTED_EDGE('',*,*,#185,.F.);
#198=EDGE_LOOP('',(#196,#197));
#199=FACE_OUTER_BOUND('',#198,.F.);
#201=ORIENTED_EDGE('',*,*,#200,.T.);
#203=ORIENTED_EDGE('',*,*,#202,.T.);
#204=EDGE_LOOP('',(#201,#203));
#205=FACE_BOUND('',#204,.F.);
#206=ADVANCED_FACE('',(#199,#205),#195,.T.);
#207=CARTESIAN_POINT('',(0.E0,0.E0,7.3E0));
#208=DIRECTION('',(0.E0,0.E0,1.E0));
#209=DIRECTION('',(1.E0,0.E0,0.E0));
#210=AXIS2_PLACEMENT_3D('',#207,#208,#209);
#211=PLANE('',#210);
#213=ORIENTED_EDGE('',*,*,#212,.F.);
#215=ORIENTED_EDGE('',*,*,#214,.F.);
#216=EDGE_LOOP('',(#213,#215));
#217=FACE_OUTER_BOUND('',#216,.F.);
#219=ORIENTED_EDGE('',*,*,#218,.T.);
#221=ORIENTED_EDGE('',*,*,#220,.T.);
#222=EDGE_LOOP('',(#219,#221));
#223=FACE_BOUND('',#222,.F.);
#224=ADVANCED_FACE('',(#217,#223),#211,.T.);
#225=CARTESIAN_POINT('',(0.E0,0.E0,7.3E0));
#226=DIRECTION('',(0.E0,0.E0,1.E0));
#227=DIRECTION('',(1.E0,0.E0,0.E0));
#228=AXIS2_PLACEMENT_3D('',#225,#226,#227);
#229=CYLINDRICAL_SURFACE('',#228,3.15E0);
#230=ORIENTED_EDGE('',*,*,#218,.F.);
#232=ORIENTED_EDGE('',*,*,#231,.T.);
#233=ORIENTED_EDGE('',*,*,#156,.T.);
#235=ORIENTED_EDGE('',*,*,#234,.F.);
#236=EDGE_LOOP('',(#230,#232,#233,#235));
#237=FACE_OUTER_BOUND('',#236,.F.);
#238=ADVANCED_FACE('',(#237),#229,.F.);
#239=CARTESIAN_POINT('',(0.E0,0.E0,7.3E0));
#240=DIRECTION('',(0.E0,0.E0,1.E0));
#241=DIRECTION('',(1.E0,0.E0,0.E0));
#242=AXIS2_PLACEMENT_3D('',#239,#240,#241);
#243=CYLINDRICAL_SURFACE('',#242,3.15E0);
#244=ORIENTED_EDGE('',*,*,#220,.F.);
#245=ORIENTED_EDGE('',*,*,#234,.T.);
#246=ORIENTED_EDGE('',*,*,#158,.T.);
#247=ORIENTED_EDGE('',*,*,#231,.F.);
#248=EDGE_LOOP('',(#244,#245,#246,#247));
#249=FACE_OUTER_BOUND('',#248,.F.);
#250=ADVANCED_FACE('',(#249),#243,.F.);
#251=CARTESIAN_POINT('',(0.E0,0.E0,7.3E0));
#252=DIRECTION('',(0.E0,0.E0,1.E0));
#253=DIRECTION('',(1.E0,0.E0,0.E0));
#254=AXIS2_PLACEMENT_3D('',#251,#252,#253);
#255=CYLINDRICAL_SURFACE('',#254,2.9625E1);
#256=ORIENTED_EDGE('',*,*,#200,.F.);
#258=ORIENTED_EDGE('',*,*,#257,.T.);
#260=ORIENTED_EDGE('',*,*,#259,.T.);
#262=ORIENTED_EDGE('',*,*,#261,.F.);
#263=EDGE_LOOP('',(#256,#258,#260,#262));
#264=FACE_OUTER_BOUND('',#263,.F.);
#265=ADVANCED_FACE('',(#264),#255,.F.);
#266=CARTESIAN_POINT('',(0.E0,0.E0,7.3E0));
#267=DIRECTION('',(0.E0,0.E0,1.E0));
#268=DIRECTION('',(1.E0,0.E0,0.E0));
#269=AXIS2_PLACEMENT_3D('',#266,#267,#268);
#270=CYLINDRICAL_SURFACE('',#269,2.9625E1);
#271=ORIENTED_EDGE('',*,*,#202,.F.);
#272=ORIENTED_EDGE('',*,*,#261,.T.);
#274=ORIENTED_EDGE('',*,*,#273,.T.);
#275=ORIENTED_EDGE('',*,*,#257,.F.);
#276=EDGE_LOOP('',(#271,#272,#274,#275));
#277=FACE_OUTER_BOUND('',#276,.F.);
#278=ADVANCED_FACE('',(#277),#270,.F.);
#279=CARTESIAN_POINT('',(0.E0,0.E0,7.05E0));
#280=DIRECTION('',(0.E0,0.E0,1.E0));
#281=DIRECTION('',(1.E0,0.E0,0.E0));
#282=AXIS2_PLACEMENT_3D('',#279,#280,#281);
#283=PLANE('',#282);
#284=ORIENTED_EDGE('',*,*,#259,.F.);
#285=ORIENTED_EDGE('',*,*,#273,.F.);
#286=EDGE_LOOP('',(#284,#285));
#287=FACE_OUTER_BOUND('',#286,.F.);
#289=ORIENTED_EDGE('',*,*,#288,.F.);
#291=ORIENTED_EDGE('',*,*,#290,.F.);
#292=EDGE_LOOP('',(#289,#291));
#293=FACE_BOUND('',#292,.F.);
#294=ADVANCED_FACE('',(#287,#293),#283,.T.);
#295=CARTESIAN_POINT('',(0.E0,0.E0,7.3E0));
#296=DIRECTION('',(0.E0,0.E0,1.E0));
#297=DIRECTION('',(1.E0,0.E0,0.E0));
#298=AXIS2_PLACEMENT_3D('',#295,#296,#297);
#299=CYLINDRICAL_SURFACE('',#298,4.65E0);
#300=ORIENTED_EDGE('',*,*,#212,.T.);
#302=ORIENTED_EDGE('',*,*,#301,.T.);
#303=ORIENTED_EDGE('',*,*,#288,.T.);
#305=ORIENTED_EDGE('',*,*,#304,.F.);
#306=EDGE_LOOP('',(#300,#302,#303,#305));
#307=FACE_OUTER_BOUND('',#306,.F.);
#308=ADVANCED_FACE('',(#307),#299,.T.);
#309=CARTESIAN_POINT('',(0.E0,0.E0,7.3E0));
#310=DIRECTION('',(0.E0,0.E0,1.E0));
#311=DIRECTION('',(1.E0,0.E0,0.E0));
#312=AXIS2_PLACEMENT_3D('',#309,#310,#311);
#313=CYLINDRICAL_SURFACE('',#312,4.65E0);
#314=ORIENTED_EDGE('',*,*,#214,.T.);
#315=ORIENTED_EDGE('',*,*,#304,.T.);
#316=ORIENTED_EDGE('',*,*,#290,.T.);
#317=ORIENTED_EDGE('',*,*,#301,.F.);
#318=EDGE_LOOP('',(#314,#315,#316,#317));
#319=FACE_OUTER_BOUND('',#318,.F.);
#320=ADVANCED_FACE('',(#319),#313,.T.);
#321=CLOSED_SHELL('',(#162,#177,#190,#206,#224,#238,#250,#265,#278,#294,#308,
#320));
#322=MANIFOLD_SOLID_BREP('',#321);
#324=DIMENSIONAL_EXPONENTS(0.E0,0.E0,0.E0,0.E0,0.E0,0.E0,0.E0);
#326=PLANE_ANGLE_MEASURE_WITH_UNIT(PLANE_ANGLE_MEASURE(1.745329251994E-2),#325);
#327=(CONVERSION_BASED_UNIT('DEGREE',#326)NAMED_UNIT(*)PLANE_ANGLE_UNIT());
#329=UNCERTAINTY_MEASURE_WITH_UNIT(LENGTH_MEASURE(8.586734017424E-3),#323,
'closure',
'Maximum model space distance between geometric entities at asserted connectivities');
#330=(GEOMETRIC_REPRESENTATION_CONTEXT(3)GLOBAL_UNCERTAINTY_ASSIGNED_CONTEXT((
#329))GLOBAL_UNIT_ASSIGNED_CONTEXT((#323,#327,#328))REPRESENTATION_CONTEXT
('ID1','3'));
#331=CARTESIAN_POINT('',(0.E0,0.E0,0.E0));
#332=DIRECTION('',(0.E0,0.E0,1.E0));
#333=DIRECTION('',(1.E0,0.E0,0.E0));
#336=APPLICATION_CONTEXT(
'CONFIGURATION CONTROLLED 3D DESIGNS OF MECHANICAL PARTS AND ASSEMBLIES');
#337=APPLICATION_PROTOCOL_DEFINITION('international standard',
'config_control_design',1994,#336);
#338=DESIGN_CONTEXT('',#336,'design');
#339=MECHANICAL_CONTEXT('',#336,'mechanical');
#340=PRODUCT('808449','808449','NOT SPECIFIED',(#339));
#341=PRODUCT_DEFINITION_FORMATION_WITH_SPECIFIED_SOURCE('1','LAST_VERSION',#340,
.MADE.);
#350=CARTESIAN_POINT('',(0.E0,0.E0,0.E0));
#351=DIRECTION('',(0.E0,0.E0,1.E0));
#352=DIRECTION('',(1.E0,0.E0,0.E0));
#353=AXIS2_PLACEMENT_3D('',#350,#351,#352);
#354=ITEM_DEFINED_TRANSFORMATION('','',#334,#353);
#355=(REPRESENTATION_RELATIONSHIP('','',#335,#347)REPRESENTATION_RELATIONSHIP_WITH_TRANSFORMATION(#354)SHAPE_REPRESENTATION_RELATIONSHIP());
#356=CONTEXT_DEPENDENT_SHAPE_REPRESENTATION(#355,#349);
#358=DIMENSIONAL_EXPONENTS(0.E0,0.E0,0.E0,0.E0,0.E0,0.E0,0.E0);
#360=PLANE_ANGLE_MEASURE_WITH_UNIT(PLANE_ANGLE_MEASURE(1.745329251994E-2),#359);
#361=(CONVERSION_BASED_UNIT('DEGREE',#360)NAMED_UNIT(*)PLANE_ANGLE_UNIT());
#363=UNCERTAINTY_MEASURE_WITH_UNIT(LENGTH_MEASURE(8.586734017424E-3),#357,
'closure',
'Maximum model space distance between geometric entities at asserted connectivities');
#364=(GEOMETRIC_REPRESENTATION_CONTEXT(3)GLOBAL_UNCERTAINTY_ASSIGNED_CONTEXT((
#363))GLOBAL_UNIT_ASSIGNED_CONTEXT((#357,#361,#362))REPRESENTATION_CONTEXT
('ID2','3'));
#365=CARTESIAN_POINT('',(0.E0,0.E0,0.E0));
#366=DIRECTION('',(0.E0,0.E0,1.E0));
#367=DIRECTION('',(1.E0,0.E0,0.E0));
#369=MECHANICAL_CONTEXT('',#336,'mechanical');
#370=PRODUCT('214202_ASM','214202_ASM','NOT SPECIFIED',(#369));
#371=PRODUCT_DEFINITION_FORMATION_WITH_SPECIFIED_SOURCE('1','LAST_VERSION',#370,
.MADE.);
#373=PRODUCT_CATEGORY('part','');
#374=PRODUCT_RELATED_PRODUCT_CATEGORY('assembly','',(#370));
#375=PRODUCT_CATEGORY_RELATIONSHIP('','',#373,#374);
#376=PRODUCT_CATEGORY('part','');
#377=PRODUCT_RELATED_PRODUCT_CATEGORY('detail','',(#340));
#378=PRODUCT_CATEGORY_RELATIONSHIP('','',#376,#377);
#379=SECURITY_CLASSIFICATION_LEVEL('unclassified');
#380=SECURITY_CLASSIFICATION('','',#379);
#381=CC_DESIGN_SECURITY_CLASSIFICATION(#380,(#341,#371,#348));
#382=APPROVAL_STATUS('approved');
#383=APPROVAL(#382,'');
#384=CC_DESIGN_APPROVAL(#383,(#380,#341,#371,#342,#372));
#385=CALENDAR_DATE(119,25,9);
#386=COORDINATED_UNIVERSAL_TIME_OFFSET(5,0,.BEHIND.);
#387=LOCAL_TIME(13,54,2.4E1,#386);
#388=DATE_AND_TIME(#385,#387);
#389=APPROVAL_DATE_TIME(#388,#383);
#390=DATE_TIME_ROLE('creation_date');
#391=CC_DESIGN_DATE_AND_TIME_ASSIGNMENT(#388,#390,(#342,#372));
#392=DATE_TIME_ROLE('classification_date');
#393=CC_DESIGN_DATE_AND_TIME_ASSIGNMENT(#388,#392,(#380));
#394=PERSON('UNSPECIFIED','UNSPECIFIED',$,$,$,$);
#395=ORGANIZATION('UNSPECIFIED','UNSPECIFIED','UNSPECIFIED');
#396=PERSON_AND_ORGANIZATION(#394,#395);
#397=APPROVAL_ROLE('approver');
#398=APPROVAL_PERSON_ORGANIZATION(#396,#383,#397);
#399=PERSON_AND_ORGANIZATION_ROLE('creator');
#400=CC_DESIGN_PERSON_AND_ORGANIZATION_ASSIGNMENT(#396,#399,(#341,#371,#342,
#372));
#401=PERSON_AND_ORGANIZATION_ROLE('design_supplier');
#402=CC_DESIGN_PERSON_AND_ORGANIZATION_ASSIGNMENT(#396,#401,(#341,#371));
#403=PERSON_AND_ORGANIZATION_ROLE('classification_officer');
#404=CC_DESIGN_PERSON_AND_ORGANIZATION_ASSIGNMENT(#396,#403,(#380));
#405=PERSON_AND_ORGANIZATION_ROLE('design_owner');
#406=CC_DESIGN_PERSON_AND_ORGANIZATION_ASSIGNMENT(#396,#405,(#370,#340));
#5=CIRCLE('',#4,3.025E1);
#10=CIRCLE('',#9,3.025E1);
#15=CIRCLE('',#14,3.15E0);
#20=CIRCLE('',#19,3.15E0);
#33=CIRCLE('',#32,3.025E1);
#38=CIRCLE('',#37,3.025E1);
#43=CIRCLE('',#42,3.15E0);
#48=CIRCLE('',#47,3.15E0);
#53=CIRCLE('',#52,2.9625E1);
#58=CIRCLE('',#57,2.9625E1);
#63=CIRCLE('',#62,4.65E0);
#68=CIRCLE('',#67,4.65E0);
#89=CIRCLE('',#88,2.9625E1);
#94=CIRCLE('',#93,2.9625E1);
#99=CIRCLE('',#98,4.65E0);
#104=CIRCLE('',#103,4.65E0);
#150=EDGE_CURVE('',#115,#116,#5,.T.);
#152=EDGE_CURVE('',#116,#115,#10,.T.);
#156=EDGE_CURVE('',#126,#128,#15,.T.);
#158=EDGE_CURVE('',#128,#126,#20,.T.);
#169=EDGE_CURVE('',#115,#119,#24,.T.);
#171=EDGE_CURVE('',#119,#120,#33,.T.);
#173=EDGE_CURVE('',#116,#120,#28,.T.);
#185=EDGE_CURVE('',#120,#119,#38,.T.);
#200=EDGE_CURVE('',#139,#140,#53,.T.);
#202=EDGE_CURVE('',#140,#139,#58,.T.);
#212=EDGE_CURVE('',#143,#144,#63,.T.);
#214=EDGE_CURVE('',#144,#143,#68,.T.);
#218=EDGE_CURVE('',#123,#124,#43,.T.);
#220=EDGE_CURVE('',#124,#123,#48,.T.);
#231=EDGE_CURVE('',#123,#126,#72,.T.);
#234=EDGE_CURVE('',#124,#128,#76,.T.);
#257=EDGE_CURVE('',#139,#131,#80,.T.);
#259=EDGE_CURVE('',#131,#132,#89,.T.);
#261=EDGE_CURVE('',#140,#132,#84,.T.);
#273=EDGE_CURVE('',#132,#131,#94,.T.);
#288=EDGE_CURVE('',#135,#136,#99,.T.);
#290=EDGE_CURVE('',#136,#135,#104,.T.);
#301=EDGE_CURVE('',#144,#135,#108,.T.);
#304=EDGE_CURVE('',#143,#136,#112,.T.);
#323=(LENGTH_UNIT()NAMED_UNIT(*)SI_UNIT(.MILLI.,.METRE.));
#325=(NAMED_UNIT(*)PLANE_ANGLE_UNIT()SI_UNIT($,.RADIAN.));
#328=(NAMED_UNIT(*)SI_UNIT($,.STERADIAN.)SOLID_ANGLE_UNIT());
#334=AXIS2_PLACEMENT_3D('',#331,#332,#333);
#335=ADVANCED_BREP_SHAPE_REPRESENTATION('',(#334,#322),#330);
#342=PRODUCT_DEFINITION('design','',#341,#338);
#343=PRODUCT_DEFINITION_SHAPE('','SHAPE FOR 808449.',#342);
#344=SHAPE_DEFINITION_REPRESENTATION(#343,#335);
#345=SHAPE_DEFINITION_REPRESENTATION(#346,#347);
#346=PRODUCT_DEFINITION_SHAPE('','SHAPE FOR 214202_ASM.',#372);
#347=SHAPE_REPRESENTATION('',(#353,#368),#364);
#348=NEXT_ASSEMBLY_USAGE_OCCURRENCE('0','Next assembly relationship','808449',
#372,#342,$);
#349=PRODUCT_DEFINITION_SHAPE('Placement #0',
'Placement of 808449 with respect to 214202_ASM',#348);
#357=(LENGTH_UNIT()NAMED_UNIT(*)SI_UNIT(.MILLI.,.METRE.));
#359=(NAMED_UNIT(*)PLANE_ANGLE_UNIT()SI_UNIT($,.RADIAN.));
#362=(NAMED_UNIT(*)SI_UNIT($,.STERADIAN.)SOLID_ANGLE_UNIT());
#368=AXIS2_PLACEMENT_3D('',#365,#366,#367);
#372=PRODUCT_DEFINITION('design','',#371,#338);
ENDSEC;
END-ISO-10303-21;
