 PTC IGES file: 214202.igs                                              S      1
1H,,1H;,10H214202_ASM,10H214202.igs,27HCreo Parametric by PTC Inc.,     G      1
7H2018300,32,38,7,38,15,10H214202_ASM,1.,2,2HMM,32768,0.5,              G      2
15H20190925.135424,0.00858673,85.8708,8Hpdmadmin,7HUnknown,10,0,        G      3
15H20190925.135424;                                                     G      4
     314       1       1       1       0       0       0       001000200D      1
     314       0       4       1       0                   COLOR       1D      2
     314       2       1       1       0       0       0       001000200D      3
     314       0       1       1       0                   COLOR       2D      4
     314       3       1       1       0       0       0       001000200D      5
     314       0       2       1       0                   COLOR       3D      6
     314       4       1       1       0       0       0       001000200D      7
     314       0       8       1       0                   COLOR       4D      8
     314       5       1       1       0       0       0       001000200D      9
     314       0       8       1       0                   COLOR       5D     10
     314       6       1       1       0       0       0       001000200D     11
     314       0       8       1       0                   COLOR       6D     12
     314       7       1       1       0       0       0       001000200D     13
     314       0       5       1       0                   COLOR       7D     14
     314       8       1       1       0       0       0       001000200D     15
     314       0       8       1       0                   COLOR       8D     16
     314       9       1       1       0       0       0       001000200D     17
     314       0       8       1       0                   COLOR       9D     18
     124      10       1       1       0       0       0       001000000D     19
     124       0       0       1       0                   XFORM       1D     20
     100      11       1       1  808449       0      19       001010000D     21
     100       0       0       1       0                     ARC       1D     22
     124      12       1       1       0       0       0       001000000D     23
     124       0       0       1       0                   XFORM       2D     24
     100      13       1       1  808449       0      23       001010000D     25
     100       0       0       1       0                     ARC       2D     26
     124      14       1       1       0       0       0       001000000D     27
     124       0       0       1       0                   XFORM       3D     28
     100      15       1       1  808449       0      27       001010000D     29
     100       0       0       1       0                     ARC       3D     30
     124      16       1       1       0       0       0       001000000D     31
     124       0       0       1       0                   XFORM       4D     32
     100      17       1       1  808449       0      31       001010000D     33
     100       0       0       1       0                     ARC       4D     34
     110      18       1       1  808449       0       0       001010000D     35
     110       0       0       1       0                    LINE       1D     36
     110      19       1       1  808449       0       0       001010000D     37
     110       0       0       1       0                    LINE       2D     38
     124      20       1       1       0       0       0       001000000D     39
     124       0       0       1       0                   XFORM       5D     40
     100      21       1       1  808449       0      39       001010000D     41
     100       0       0       1       0                     ARC       5D     42
     124      22       1       1       0       0       0       001000000D     43
     124       0       0       1       0                   XFORM       6D     44
     100      23       1       1  808449       0      43       001010000D     45
     100       0       0       1       0                     ARC       6D     46
     124      24       1       1       0       0       0       001000000D     47
     124       0       0       1       0                   XFORM       7D     48
     100      25       1       1  808449       0      47       001010000D     49
     100       0       0       1       0                     ARC       7D     50
     124      26       1       1       0       0       0       001000000D     51
     124       0       0       1       0                   XFORM       8D     52
     100      27       1       1  808449       0      51       001010000D     53
     100       0       0       1       0                     ARC       8D     54
     124      28       1       1       0       0       0       001000000D     55
     124       0       0       1       0                   XFORM       9D     56
     100      29       1       1  808449       0      55       001010000D     57
     100       0       0       1       0                     ARC       9D     58
     124      30       1       1       0       0       0       001000000D     59
     124       0       0       1       0                   XFORM      10D     60
     100      31       1       1  808449       0      59       001010000D     61
     100       0       0       1       0                     ARC      10D     62
     124      32       1       1       0       0       0       001000000D     63
     124       0       0       1       0                   XFORM      11D     64
     100      33       1       1  808449       0      63       001010000D     65
     100       0       0       1       0                     ARC      11D     66
     124      34       1       1       0       0       0       001000000D     67
     124       0       0       1       0                   XFORM      12D     68
     100      35       1       1  808449       0      67       001010000D     69
     100       0       0       1       0                     ARC      12D     70
     110      36       1       1  808449       0       0       001010000D     71
     110       0       0       1       0                    LINE       3D     72
     110      37       1       1  808449       0       0       001010000D     73
     110       0       0       1       0                    LINE       4D     74
     110      38       1       1  808449       0       0       001010000D     75
     110       0       0       1       0                    LINE       5D     76
     110      39       1       1  808449       0       0       001010000D     77
     110       0       0       1       0                    LINE       6D     78
     124      40       1       1       0       0       0       001000000D     79
     124       0       0       1       0                   XFORM      13D     80
     100      41       1       1  808449       0      79       001010000D     81
     100       0       0       1       0                     ARC      13D     82
     124      42       1       1       0       0       0       001000000D     83
     124       0       0       1       0                   XFORM      14D     84
     100      43       1       1  808449       0      83       001010000D     85
     100       0       0       1       0                     ARC      14D     86
     124      44       1       1       0       0       0       001000000D     87
     124       0       0       1       0                   XFORM      15D     88
     100      45       1       1  808449       0      87       001010000D     89
     100       0       0       1       0                     ARC      15D     90
     124      46       1       1       0       0       0       001000000D     91
     124       0       0       1       0                   XFORM      16D     92
     100      47       1       1  808449       0      91       001010000D     93
     100       0       0       1       0                     ARC      16D     94
     110      48       1       1  808449       0       0       001010000D     95
     110       0       0       1       0                    LINE       7D     96
     110      49       1       1  808449       0       0       001010000D     97
     110       0       0       1       0                    LINE       8D     98
     502      50       1       1  808449       0       0       001010000D     99
     502       0       0       5       1                  VERTEX       1D    100
     504      55       1       1  808449       0       0       000010001D    101
     504       0       0       6       1                    EDGE       1D    102
     128      61       1       1  808449       0       0       001010000D    103
     128       0       0       4       0                  SPLSRF       1D    104
     508      65       1       1  808449       0       0       001010000D    105
     508       0       0       1       1                EDGELOOP       1D    106
     508      66       1       1  808449       0       0       001010000D    107
     508       0       0       1       1                EDGELOOP       2D    108
     510      67       1       1  808449       0       0       000010000D    109
     510       0       0       1       1                    FACE       1D    110
     110      68       1       1  808449       0       0       001010000D    111
     110       0       0       1       0                    LINE       9D    112
     110      69       1       1  808449       0       0       001010000D    113
     110       0       0       1       0                    LINE      10D    114
     120      70       1       1  808449       0       0       001010000D    115
     120       0       0       1       0                    SREV       1D    116
     508      71       1       1  808449       0       0       001010000D    117
     508       0       0       1       1                EDGELOOP       3D    118
     510      72       1       1  808449       0       0       000010000D    119
     510       0       0       1       1                    FACE       2D    120
     110      73       1       1  808449       0       0       001010000D    121
     110       0       0       1       0                    LINE      11D    122
     110      74       1       1  808449       0       0       001010000D    123
     110       0       0       1       0                    LINE      12D    124
     120      75       1       1  808449       0       0       001010000D    125
     120       0       0       1       0                    SREV       2D    126
     508      76       1       1  808449       0       0       001010000D    127
     508       0       0       1       1                EDGELOOP       4D    128
     510      77       1       1  808449       0       0       000010000D    129
     510       0       0       1       1                    FACE       3D    130
     128      78       1       1  808449       0       0       001010000D    131
     128       0       0       4       0                  SPLSRF       2D    132
     508      82       1       1  808449       0       0       001010000D    133
     508       0       0       1       1                EDGELOOP       5D    134
     508      83       1       1  808449       0       0       001010000D    135
     508       0       0       1       1                EDGELOOP       6D    136
     510      84       1       1  808449       0       0       000010000D    137
     510       0       0       1       1                    FACE       4D    138
     128      85       1       1  808449       0       0       001010000D    139
     128       0       0       4       0                  SPLSRF       3D    140
     508      89       1       1  808449       0       0       001010000D    141
     508       0       0       1       1                EDGELOOP       7D    142
     508      90       1       1  808449       0       0       001010000D    143
     508       0       0       1       1                EDGELOOP       8D    144
     510      91       1       1  808449       0       0       000010000D    145
     510       0       0       1       1                    FACE       5D    146
     110      92       1       1  808449       0       0       001010000D    147
     110       0       0       1       0                    LINE      13D    148
     110      93       1       1  808449       0       0       001010000D    149
     110       0       0       1       0                    LINE      14D    150
     120      94       1       1  808449       0       0       001010000D    151
     120       0       0       1       0                    SREV       3D    152
     508      95       1       1  808449       0       0       001010000D    153
     508       0       0       1       1                EDGELOOP       9D    154
     510      96       1       1  808449       0       0       000010000D    155
     510       0       0       1       1                    FACE       6D    156
     110      97       1       1  808449       0       0       001010000D    157
     110       0       0       1       0                    LINE      15D    158
     110      98       1       1  808449       0       0       001010000D    159
     110       0       0       1       0                    LINE      16D    160
     120      99       1       1  808449       0       0       001010000D    161
     120       0       0       1       0                    SREV       4D    162
     508     100       1       1  808449       0       0       001010000D    163
     508       0       0       1       1                EDGELOOP      10D    164
     510     101       1       1  808449       0       0       000010000D    165
     510       0       0       1       1                    FACE       7D    166
     110     102       1       1  808449       0       0       001010000D    167
     110       0       0       1       0                    LINE      17D    168
     110     103       1       1  808449       0       0       001010000D    169
     110       0       0       1       0                    LINE      18D    170
     120     104       1       1  808449       0       0       001010000D    171
     120       0       0       1       0                    SREV       5D    172
     508     105       1       1  808449       0       0       001010000D    173
     508       0       0       1       1                EDGELOOP      11D    174
     510     106       1       1  808449       0       0       000010000D    175
     510       0       0       1       1                    FACE       8D    176
     110     107       1       1  808449       0       0       001010000D    177
     110       0       0       1       0                    LINE      19D    178
     110     108       1       1  808449       0       0       001010000D    179
     110       0       0       1       0                    LINE      20D    180
     120     109       1       1  808449       0       0       001010000D    181
     120       0       0       1       0                    SREV       6D    182
     508     110       1       1  808449       0       0       001010000D    183
     508       0       0       1       1                EDGELOOP      12D    184
     510     111       1       1  808449       0       0       000010000D    185
     510       0       0       1       1                    FACE       9D    186
     128     112       1       1  808449       0       0       001010000D    187
     128       0       8       4       0                  SPLSRF       4D    188
     508     116       1       1  808449       0       0       001010000D    189
     508       0       0       1       1                EDGELOOP      13D    190
     508     117       1       1  808449       0       0       001010000D    191
     508       0       0       1       1                EDGELOOP      14D    192
     510     118       1       1  808449       0       0       000010000D    193
     510       0       8       1       1                    FACE      10D    194
     110     119       1       1  808449       0       0       001010000D    195
     110       0       0       1       0                    LINE      21D    196
     110     120       1       1  808449       0       0       001010000D    197
     110       0       0       1       0                    LINE      22D    198
     120     121       1       1  808449       0       0       001010000D    199
     120       0       0       1       0                    SREV       7D    200
     508     122       1       1  808449       0       0       001010000D    201
     508       0       0       1       1                EDGELOOP      15D    202
     510     123       1       1  808449       0       0       000010000D    203
     510       0       0       1       1                    FACE      11D    204
     110     124       1       1  808449       0       0       001010000D    205
     110       0       0       1       0                    LINE      23D    206
     110     125       1       1  808449       0       0       001010000D    207
     110       0       0       1       0                    LINE      24D    208
     120     126       1       1  808449       0       0       001010000D    209
     120       0       0       1       0                    SREV       8D    210
     508     127       1       1  808449       0       0       001010000D    211
     508       0       0       1       1                EDGELOOP      16D    212
     510     128       1       1  808449       0       0       000010000D    213
     510       0       0       1       1                    FACE      12D    214
     514     129       1       1  808449       0       0       000010000D    215
     514       0       0       2       1                   SHELL       1D    216
     186     131       1       1       0       0       0       000000000D    217
     186       0       0       1       0                    MSBR       1D    218
     406     132       1       1       0       0       0       001000000D    219
     406       0       0       1      15                    PROP       1D    220
     402     133       1       1       0       0       0       000000300D    221
     402       0       0       6       7                   LAYER       1D    222
314,1.1D0,1.2D0,1D2;                                                   1P      1
314,4.1D1,2.61589D1,1.12848D1;                                         3P      2
314,5.04854D1,1.5455D0,1.5455D0;                                       5P      3
314,6.35294D1,6.86275D1,7.4902D1;                                      7P      4
314,6.40777D1,6.40777D1,6.40777D1;                                     9P      5
314,6.69062D1,6.69903D1,6.55217D1;                                    11P      6
314,9.21569D1,7.05882D1,4.70588D1;                                    13P      7
314,1D2,1D2,5.3D1;                                                    15P      8
314,1D2,1D2,9.49D1;                                                   17P      9
124,1D0,0D0,0D0,0D0,0D0,1D0,0D0,0D0,0D0,0D0,1D0,0D0;                  19P     10
100,0D0,0D0,0D0,3.025D1,0D0,-3.025D1,0D0;                             21P     11
124,-1D0,0D0,0D0,0D0,0D0,-1D0,0D0,0D0,0D0,0D0,1D0,0D0;                23P     12
100,0D0,0D0,0D0,3.025D1,0D0,-3.025D1,0D0;                             25P     13
124,1D0,0D0,0D0,0D0,0D0,1D0,0D0,0D0,0D0,0D0,1D0,0D0;                  27P     14
100,0D0,0D0,0D0,3.15D0,0D0,-3.15D0,0D0;                               29P     15
124,-1D0,0D0,0D0,0D0,0D0,-1D0,0D0,0D0,0D0,0D0,1D0,0D0;                31P     16
100,0D0,0D0,0D0,3.15D0,0D0,-3.15D0,0D0;                               33P     17
110,3.025D1,0D0,0D0,3.025D1,0D0,7.3D0;                                35P     18
110,-3.025D1,0D0,0D0,-3.025D1,0D0,7.3D0;                              37P     19
124,1D0,0D0,0D0,0D0,0D0,1D0,0D0,0D0,0D0,0D0,1D0,7.3D0;                39P     20
100,0D0,0D0,0D0,3.025D1,0D0,-3.025D1,0D0;                             41P     21
124,-1D0,0D0,0D0,0D0,0D0,-1D0,0D0,0D0,0D0,0D0,1D0,7.3D0;              43P     22
100,0D0,0D0,0D0,3.025D1,0D0,-3.025D1,0D0;                             45P     23
124,1D0,0D0,0D0,0D0,0D0,1D0,0D0,0D0,0D0,0D0,1D0,7.3D0;                47P     24
100,0D0,0D0,0D0,3.15D0,0D0,-3.15D0,0D0;                               49P     25
124,-1D0,0D0,0D0,0D0,0D0,-1D0,0D0,0D0,0D0,0D0,1D0,7.3D0;              51P     26
100,0D0,0D0,0D0,3.15D0,0D0,-3.15D0,0D0;                               53P     27
124,1D0,0D0,0D0,0D0,0D0,1D0,0D0,0D0,0D0,0D0,1D0,7.3D0;                55P     28
100,0D0,0D0,0D0,2.9625D1,0D0,-2.9625D1,0D0;                           57P     29
124,-1D0,0D0,0D0,0D0,0D0,-1D0,0D0,0D0,0D0,0D0,1D0,7.3D0;              59P     30
100,0D0,0D0,0D0,2.9625D1,0D0,-2.9625D1,0D0;                           61P     31
124,-1D0,0D0,0D0,0D0,0D0,-1D0,0D0,0D0,0D0,0D0,1D0,7.3D0;              63P     32
100,0D0,0D0,0D0,4.65D0,0D0,-4.65D0,0D0;                               65P     33
124,1D0,0D0,0D0,0D0,0D0,1D0,0D0,0D0,0D0,0D0,1D0,7.3D0;                67P     34
100,0D0,0D0,0D0,4.65D0,0D0,-4.65D0,0D0;                               69P     35
110,3.15D0,0D0,7.3D0,3.15D0,0D0,0D0;                                  71P     36
110,-3.15D0,0D0,7.3D0,-3.15D0,0D0,0D0;                                73P     37
110,2.9625D1,0D0,7.3D0,2.9625D1,0D0,7.05D0;                           75P     38
110,-2.9625D1,0D0,7.3D0,-2.9625D1,0D0,7.05D0;                         77P     39
124,1D0,0D0,0D0,0D0,0D0,1D0,0D0,0D0,0D0,0D0,1D0,7.05D0;               79P     40
100,0D0,0D0,0D0,2.9625D1,0D0,-2.9625D1,0D0;                           81P     41
124,-1D0,0D0,0D0,0D0,0D0,-1D0,0D0,0D0,0D0,0D0,1D0,7.05D0;             83P     42
100,0D0,0D0,0D0,2.9625D1,0D0,-2.9625D1,0D0;                           85P     43
124,1D0,0D0,0D0,0D0,0D0,-1D0,0D0,0D0,0D0,0D0,-1D0,7.05D0;             87P     44
100,0D0,0D0,0D0,4.65D0,0D0,-4.65D0,0D0;                               89P     45
124,-1D0,0D0,0D0,0D0,0D0,1D0,0D0,0D0,0D0,0D0,-1D0,7.05D0;             91P     46
100,0D0,0D0,0D0,4.65D0,0D0,-4.65D0,0D0;                               93P     47
110,4.65D0,0D0,7.3D0,4.65D0,0D0,7.05D0;                               95P     48
110,-4.65D0,0D0,7.3D0,-4.65D0,0D0,7.05D0;                             97P     49
502,16,3.025D1,0D0,0D0,-3.025D1,0D0,0D0,3.025D1,0D0,7.3D0,            99P     50
-3.025D1,0D0,7.3D0,3.15D0,0D0,7.3D0,-3.15D0,0D0,7.3D0,3.15D0,         99P     51
0D0,0D0,-3.15D0,0D0,0D0,2.9625D1,0D0,7.05D0,-2.9625D1,0D0,            99P     52
7.05D0,4.65D0,0D0,7.05D0,-4.65D0,0D0,7.05D0,2.9625D1,0D0,7.3D0,       99P     53
-2.9625D1,0D0,7.3D0,-4.65D0,0D0,7.3D0,4.65D0,0D0,7.3D0;               99P     54
504,24,21,99,1,99,2,25,99,2,99,1,41,99,3,99,4,45,99,4,99,3,35,       101P     55
99,1,99,3,37,99,2,99,4,49,99,5,99,6,53,99,6,99,5,71,99,5,99,7,       101P     56
73,99,6,99,8,29,99,7,99,8,33,99,8,99,7,81,99,9,99,10,85,99,10,       101P     57
99,9,89,99,11,99,12,93,99,12,99,11,57,99,13,99,14,61,99,14,99,       101P     58
13,65,99,15,99,16,69,99,16,99,15,75,99,13,99,9,77,99,14,99,10,       101P     59
95,99,16,99,11,97,99,15,99,12;                                       101P     60
128,1,1,1,1,0,0,1,0,0,-3.146D1,-3.146D1,3.146D1,3.146D1,             103P     61
-3.146D1,-3.146D1,3.146D1,3.146D1,1D0,1D0,1D0,1D0,-3.146D1,          103P     62
-3.146D1,0D0,3.146D1,-3.146D1,0D0,-3.146D1,3.146D1,0D0,3.146D1,      103P     63
3.146D1,0D0,-3.146D1,3.146D1,-3.146D1,3.146D1;                       103P     64
508,2,0,101,1,1,0,0,101,2,1,0;                                       105P     65
508,2,0,101,11,0,0,0,101,12,0,0;                                     107P     66
510,103,2,0,105,107;                                                 109P     67
110,0D0,0D0,0D0,0D0,0D0,1D0;                                         111P     68
110,3.025D1,0D0,-1.46D-1,3.025D1,0D0,7.446D0;                        113P     69
120,111,113,-6.283185307180D-2,3.204424506662D0;                     115P     70
508,4,0,101,1,0,0,0,101,5,1,0,0,101,3,1,0,0,101,6,0,0;               117P     71
510,115,1,0,117;                                                     119P     72
110,0D0,0D0,0D0,0D0,0D0,1D0;                                         121P     73
110,3.025D1,0D0,-1.46D-1,3.025D1,0D0,7.446D0;                        123P     74
120,121,123,3.078760800518D0,6.346017160251D0;                       125P     75
508,4,0,101,2,0,0,0,101,6,1,0,0,101,4,1,0,0,101,5,0,0;               127P     76
510,125,1,0,127;                                                     129P     77
128,1,1,1,1,0,0,1,0,0,-3.146D1,-3.146D1,3.146D1,3.146D1,             131P     78
-3.146D1,-3.146D1,3.146D1,3.146D1,1D0,1D0,1D0,1D0,-3.146D1,          131P     79
-3.146D1,7.3D0,3.146D1,-3.146D1,7.3D0,-3.146D1,3.146D1,7.3D0,        131P     80
3.146D1,3.146D1,7.3D0,-3.146D1,3.146D1,-3.146D1,3.146D1;             131P     81
508,2,0,101,3,0,0,0,101,4,0,0;                                       133P     82
508,2,0,101,17,1,0,0,101,18,1,0;                                     135P     83
510,131,2,0,133,135;                                                 137P     84
128,1,1,1,1,0,0,1,0,0,-3.146D1,-3.146D1,3.146D1,3.146D1,             139P     85
-3.146D1,-3.146D1,3.146D1,3.146D1,1D0,1D0,1D0,1D0,-3.146D1,          139P     86
-3.146D1,7.3D0,3.146D1,-3.146D1,7.3D0,-3.146D1,3.146D1,7.3D0,        139P     87
3.146D1,3.146D1,7.3D0,-3.146D1,3.146D1,-3.146D1,3.146D1;             139P     88
508,2,0,101,19,0,0,0,101,20,0,0;                                     141P     89
508,2,0,101,7,1,0,0,101,8,1,0;                                       143P     90
510,139,2,0,141,143;                                                 145P     91
110,0D0,0D0,7.3D0,0D0,0D0,8.3D0;                                     147P     92
110,3.15D0,0D0,-1.46D-1,3.15D0,0D0,7.446D0;                          149P     93
120,147,149,-6.283185307180D-2,3.204424506662D0;                     151P     94
508,4,0,101,7,0,0,0,101,9,1,0,0,101,11,1,0,0,101,10,0,0;             153P     95
510,151,1,0,153;                                                     155P     96
110,0D0,0D0,7.3D0,0D0,0D0,8.3D0;                                     157P     97
110,3.15D0,0D0,-1.46D-1,3.15D0,0D0,7.446D0;                          159P     98
120,157,159,3.078760800518D0,6.346017160251D0;                       161P     99
508,4,0,101,8,0,0,0,101,10,1,0,0,101,12,1,0,0,101,9,0,0;             163P    100
510,161,1,0,163;                                                     165P    101
110,0D0,0D0,7.3D0,0D0,0D0,8.3D0;                                     167P    102
110,2.9625D1,0D0,6.946955069994D0,2.9625D1,0D0,7.403044930006D0;     169P    103
120,167,169,-6.283185307180D-2,3.204424506662D0;                     171P    104
508,4,0,101,17,0,0,0,101,21,1,0,0,101,13,1,0,0,101,22,0,0;           173P    105
510,171,1,0,173;                                                     175P    106
110,0D0,0D0,7.3D0,0D0,0D0,8.3D0;                                     177P    107
110,2.9625D1,0D0,6.946955069994D0,2.9625D1,0D0,7.403044930006D0;     179P    108
120,177,179,3.078760800518D0,6.346017160251D0;                       181P    109
508,4,0,101,18,0,0,0,101,22,1,0,0,101,14,1,0,0,101,21,0,0;           183P    110
510,181,1,0,183;                                                     185P    111
128,1,1,1,1,0,0,1,0,0,-3.081D1,-3.081D1,3.081D1,3.081D1,             187P    112
-3.081D1,-3.081D1,3.081D1,3.081D1,1D0,1D0,1D0,1D0,-3.081D1,          187P    113
-3.081D1,7.05D0,3.081D1,-3.081D1,7.05D0,-3.081D1,3.081D1,7.05D0,     187P    114
3.081D1,3.081D1,7.05D0,-3.081D1,3.081D1,-3.081D1,3.081D1;            187P    115
508,2,0,101,13,0,0,0,101,14,0,0;                                     189P    116
508,2,0,101,15,0,0,0,101,16,0,0;                                     191P    117
510,187,2,0,189,191;                                                 193P    118
110,0D0,0D0,7.3D0,0D0,0D0,8.3D0;                                     195P    119
110,4.65D0,0D0,6.946955069994D0,4.65D0,0D0,7.403044930006D0;         197P    120
120,195,197,3.078760800518D0,6.346017160251D0;                       199P    121
508,4,0,101,19,1,0,0,101,23,1,0,0,101,15,1,0,0,101,24,0,0;           201P    122
510,199,1,0,201;                                                     203P    123
110,0D0,0D0,7.3D0,0D0,0D0,8.3D0;                                     205P    124
110,4.65D0,0D0,6.946955069994D0,4.65D0,0D0,7.403044930006D0;         207P    125
120,205,207,-6.283185307180D-2,3.204424506662D0;                     209P    126
508,4,0,101,20,1,0,0,101,24,1,0,0,101,16,1,0,0,101,23,0,0;           211P    127
510,209,1,0,211;                                                     213P    128
514,12,109,0,119,1,129,1,137,1,145,1,155,0,165,0,175,0,185,0,        215P    129
193,1,203,1,213,1;                                                   215P    130
186,215,1,0;                                                         217P    131
406,1,6H808449;                                                      219P    132
402,84,21,25,29,33,35,37,41,45,49,53,57,61,65,69,71,73,75,77,81,     221P    133
85,89,93,95,97,99,101,103,105,107,109,111,113,115,117,119,121,       221P    134
123,125,127,129,131,133,135,137,139,141,143,145,147,149,151,153,     221P    135
155,157,159,161,163,165,167,169,171,173,175,177,179,181,183,185,     221P    136
187,189,191,193,195,197,199,201,203,205,207,209,211,213,215,217,     221P    137
0,1,219;                                                             221P    138
S      1G      4D    222P    138                                        T      1
