ISO-10303-21;
HEADER;
FILE_DESCRIPTION((''),'2;1');
FILE_NAME('161957_ASM','2016-04-21T',('pdmadmin'),(''),
'PRO/ENGINEER BY PARAMETRIC TECHNOLOGY CORPORATION, 2016010',
'PRO/ENGINEER BY PARAMETRIC TECHNOLOGY CORPORATION, 2016010','');
FILE_SCHEMA(('CONFIG_CONTROL_DESIGN'));
ENDSEC;
DATA;
#1=CARTESIAN_POINT('',(0.E0,0.E0,0.E0));
#2=DIRECTION('',(0.E0,0.E0,1.E0));
#3=DIRECTION('',(1.E0,0.E0,0.E0));
#4=AXIS2_PLACEMENT_3D('',#1,#2,#3);
#6=CARTESIAN_POINT('',(0.E0,0.E0,0.E0));
#7=DIRECTION('',(0.E0,0.E0,1.E0));
#8=DIRECTION('',(-1.E0,0.E0,0.E0));
#9=AXIS2_PLACEMENT_3D('',#6,#7,#8);
#11=DIRECTION('',(0.E0,0.E0,1.E0));
#12=VECTOR('',#11,5.E0);
#13=CARTESIAN_POINT('',(2.6E1,0.E0,0.E0));
#14=LINE('',#13,#12);
#15=DIRECTION('',(0.E0,0.E0,1.E0));
#16=VECTOR('',#15,5.E0);
#17=CARTESIAN_POINT('',(-2.6E1,0.E0,0.E0));
#18=LINE('',#17,#16);
#19=CARTESIAN_POINT('',(0.E0,0.E0,5.E0));
#20=DIRECTION('',(0.E0,0.E0,1.E0));
#21=DIRECTION('',(1.E0,0.E0,0.E0));
#22=AXIS2_PLACEMENT_3D('',#19,#20,#21);
#24=CARTESIAN_POINT('',(0.E0,0.E0,5.E0));
#25=DIRECTION('',(0.E0,0.E0,1.E0));
#26=DIRECTION('',(-1.E0,0.E0,0.E0));
#27=AXIS2_PLACEMENT_3D('',#24,#25,#26);
#29=DIRECTION('',(1.E0,0.E0,0.E0));
#30=VECTOR('',#29,9.E0);
#31=CARTESIAN_POINT('',(-4.5E0,-2.29E1,5.E0));
#32=LINE('',#31,#30);
#33=DIRECTION('',(8.301458365683E-1,5.575463120032E-1,0.E0));
#34=VECTOR('',#33,1.596279951709E1);
#35=CARTESIAN_POINT('',(4.5E0,-2.29E1,5.E0));
#36=LINE('',#35,#34);
#37=DIRECTION('',(0.E0,1.E0,0.E0));
#38=VECTOR('',#37,2.8E1);
#39=CARTESIAN_POINT('',(1.775145155909E1,-1.4E1,5.E0));
#40=LINE('',#39,#38);
#41=DIRECTION('',(-8.301458365683E-1,5.575463120032E-1,0.E0));
#42=VECTOR('',#41,1.596279951709E1);
#43=CARTESIAN_POINT('',(1.775145155909E1,1.4E1,5.E0));
#44=LINE('',#43,#42);
#45=DIRECTION('',(-1.E0,0.E0,0.E0));
#46=VECTOR('',#45,9.E0);
#47=CARTESIAN_POINT('',(4.5E0,2.29E1,5.E0));
#48=LINE('',#47,#46);
#49=DIRECTION('',(-8.301458365683E-1,-5.575463120032E-1,0.E0));
#50=VECTOR('',#49,1.596279951709E1);
#51=CARTESIAN_POINT('',(-4.5E0,2.29E1,5.E0));
#52=LINE('',#51,#50);
#53=DIRECTION('',(0.E0,-1.E0,0.E0));
#54=VECTOR('',#53,2.8E1);
#55=CARTESIAN_POINT('',(-1.775145155909E1,1.4E1,5.E0));
#56=LINE('',#55,#54);
#57=DIRECTION('',(8.301458365683E-1,-5.575463120032E-1,0.E0));
#58=VECTOR('',#57,1.596279951709E1);
#59=CARTESIAN_POINT('',(-1.775145155909E1,-1.4E1,5.E0));
#60=LINE('',#59,#58);
#61=DIRECTION('',(0.E0,0.E0,1.E0));
#62=VECTOR('',#61,4.E0);
#63=CARTESIAN_POINT('',(-4.5E0,-2.29E1,5.E0));
#64=LINE('',#63,#62);
#65=DIRECTION('',(0.E0,0.E0,1.E0));
#66=VECTOR('',#65,4.E0);
#67=CARTESIAN_POINT('',(-1.775145155909E1,-1.4E1,5.E0));
#68=LINE('',#67,#66);
#69=DIRECTION('',(0.E0,0.E0,1.E0));
#70=VECTOR('',#69,4.E0);
#71=CARTESIAN_POINT('',(-1.775145155909E1,1.4E1,5.E0));
#72=LINE('',#71,#70);
#73=DIRECTION('',(0.E0,0.E0,1.E0));
#74=VECTOR('',#73,4.E0);
#75=CARTESIAN_POINT('',(-4.5E0,2.29E1,5.E0));
#76=LINE('',#75,#74);
#77=DIRECTION('',(0.E0,0.E0,1.E0));
#78=VECTOR('',#77,4.E0);
#79=CARTESIAN_POINT('',(4.5E0,2.29E1,5.E0));
#80=LINE('',#79,#78);
#81=DIRECTION('',(0.E0,0.E0,1.E0));
#82=VECTOR('',#81,4.E0);
#83=CARTESIAN_POINT('',(1.775145155909E1,1.4E1,5.E0));
#84=LINE('',#83,#82);
#85=DIRECTION('',(0.E0,0.E0,1.E0));
#86=VECTOR('',#85,4.E0);
#87=CARTESIAN_POINT('',(1.775145155909E1,-1.4E1,5.E0));
#88=LINE('',#87,#86);
#89=DIRECTION('',(0.E0,0.E0,1.E0));
#90=VECTOR('',#89,4.E0);
#91=CARTESIAN_POINT('',(4.5E0,-2.29E1,5.E0));
#92=LINE('',#91,#90);
#93=DIRECTION('',(1.E0,0.E0,0.E0));
#94=VECTOR('',#93,9.E0);
#95=CARTESIAN_POINT('',(-4.5E0,-2.29E1,9.E0));
#96=LINE('',#95,#94);
#97=DIRECTION('',(8.301458365683E-1,-5.575463120032E-1,0.E0));
#98=VECTOR('',#97,1.596279951709E1);
#99=CARTESIAN_POINT('',(-1.775145155909E1,-1.4E1,9.E0));
#100=LINE('',#99,#98);
#101=DIRECTION('',(0.E0,-1.E0,0.E0));
#102=VECTOR('',#101,2.8E1);
#103=CARTESIAN_POINT('',(-1.775145155909E1,1.4E1,9.E0));
#104=LINE('',#103,#102);
#105=DIRECTION('',(-8.301458365683E-1,-5.575463120032E-1,0.E0));
#106=VECTOR('',#105,1.596279951709E1);
#107=CARTESIAN_POINT('',(-4.5E0,2.29E1,9.E0));
#108=LINE('',#107,#106);
#109=DIRECTION('',(-1.E0,0.E0,0.E0));
#110=VECTOR('',#109,9.E0);
#111=CARTESIAN_POINT('',(4.5E0,2.29E1,9.E0));
#112=LINE('',#111,#110);
#113=DIRECTION('',(-8.301458365683E-1,5.575463120032E-1,0.E0));
#114=VECTOR('',#113,1.596279951709E1);
#115=CARTESIAN_POINT('',(1.775145155909E1,1.4E1,9.E0));
#116=LINE('',#115,#114);
#117=DIRECTION('',(0.E0,1.E0,0.E0));
#118=VECTOR('',#117,2.8E1);
#119=CARTESIAN_POINT('',(1.775145155909E1,-1.4E1,9.E0));
#120=LINE('',#119,#118);
#121=DIRECTION('',(8.301458365683E-1,5.575463120032E-1,0.E0));
#122=VECTOR('',#121,1.596279951709E1);
#123=CARTESIAN_POINT('',(4.5E0,-2.29E1,9.E0));
#124=LINE('',#123,#122);
#125=CARTESIAN_POINT('',(2.6E1,0.E0,0.E0));
#126=CARTESIAN_POINT('',(-2.6E1,0.E0,0.E0));
#127=VERTEX_POINT('',#125);
#128=VERTEX_POINT('',#126);
#129=CARTESIAN_POINT('',(2.6E1,0.E0,5.E0));
#130=CARTESIAN_POINT('',(-2.6E1,0.E0,5.E0));
#131=VERTEX_POINT('',#129);
#132=VERTEX_POINT('',#130);
#133=CARTESIAN_POINT('',(-4.5E0,-2.29E1,9.E0));
#134=CARTESIAN_POINT('',(4.5E0,-2.29E1,9.E0));
#135=VERTEX_POINT('',#133);
#136=VERTEX_POINT('',#134);
#137=CARTESIAN_POINT('',(1.775145155909E1,-1.4E1,9.E0));
#138=VERTEX_POINT('',#137);
#139=CARTESIAN_POINT('',(1.775145155909E1,1.4E1,9.E0));
#140=CARTESIAN_POINT('',(4.5E0,2.29E1,9.E0));
#141=VERTEX_POINT('',#139);
#142=VERTEX_POINT('',#140);
#143=CARTESIAN_POINT('',(-4.5E0,2.29E1,9.E0));
#144=VERTEX_POINT('',#143);
#145=CARTESIAN_POINT('',(-1.775145155909E1,1.4E1,9.E0));
#146=VERTEX_POINT('',#145);
#147=CARTESIAN_POINT('',(-1.775145155909E1,-1.4E1,9.E0));
#148=VERTEX_POINT('',#147);
#149=CARTESIAN_POINT('',(-4.5E0,-2.29E1,5.E0));
#150=CARTESIAN_POINT('',(4.5E0,-2.29E1,5.E0));
#151=VERTEX_POINT('',#149);
#152=VERTEX_POINT('',#150);
#153=CARTESIAN_POINT('',(1.775145155909E1,-1.4E1,5.E0));
#154=VERTEX_POINT('',#153);
#155=CARTESIAN_POINT('',(1.775145155909E1,1.4E1,5.E0));
#156=CARTESIAN_POINT('',(4.5E0,2.29E1,5.E0));
#157=VERTEX_POINT('',#155);
#158=VERTEX_POINT('',#156);
#159=CARTESIAN_POINT('',(-4.5E0,2.29E1,5.E0));
#160=VERTEX_POINT('',#159);
#161=CARTESIAN_POINT('',(-1.775145155909E1,1.4E1,5.E0));
#162=VERTEX_POINT('',#161);
#163=CARTESIAN_POINT('',(-1.775145155909E1,-1.4E1,5.E0));
#164=VERTEX_POINT('',#163);
#165=CARTESIAN_POINT('',(0.E0,0.E0,0.E0));
#166=DIRECTION('',(0.E0,0.E0,1.E0));
#167=DIRECTION('',(1.E0,0.E0,0.E0));
#168=AXIS2_PLACEMENT_3D('',#165,#166,#167);
#169=PLANE('',#168);
#171=ORIENTED_EDGE('',*,*,#170,.T.);
#173=ORIENTED_EDGE('',*,*,#172,.T.);
#174=EDGE_LOOP('',(#171,#173));
#175=FACE_OUTER_BOUND('',#174,.F.);
#176=ADVANCED_FACE('',(#175),#169,.F.);
#177=CARTESIAN_POINT('',(0.E0,0.E0,0.E0));
#178=DIRECTION('',(0.E0,0.E0,1.E0));
#179=DIRECTION('',(1.E0,0.E0,0.E0));
#180=AXIS2_PLACEMENT_3D('',#177,#178,#179);
#181=CYLINDRICAL_SURFACE('',#180,2.6E1);
#182=ORIENTED_EDGE('',*,*,#170,.F.);
#184=ORIENTED_EDGE('',*,*,#183,.T.);
#186=ORIENTED_EDGE('',*,*,#185,.T.);
#188=ORIENTED_EDGE('',*,*,#187,.F.);
#189=EDGE_LOOP('',(#182,#184,#186,#188));
#190=FACE_OUTER_BOUND('',#189,.F.);
#191=ADVANCED_FACE('',(#190),#181,.T.);
#192=CARTESIAN_POINT('',(0.E0,0.E0,0.E0));
#193=DIRECTION('',(0.E0,0.E0,1.E0));
#194=DIRECTION('',(1.E0,0.E0,0.E0));
#195=AXIS2_PLACEMENT_3D('',#192,#193,#194);
#196=CYLINDRICAL_SURFACE('',#195,2.6E1);
#197=ORIENTED_EDGE('',*,*,#172,.F.);
#198=ORIENTED_EDGE('',*,*,#187,.T.);
#200=ORIENTED_EDGE('',*,*,#199,.T.);
#201=ORIENTED_EDGE('',*,*,#183,.F.);
#202=EDGE_LOOP('',(#197,#198,#200,#201));
#203=FACE_OUTER_BOUND('',#202,.F.);
#204=ADVANCED_FACE('',(#203),#196,.T.);
#205=CARTESIAN_POINT('',(0.E0,0.E0,5.E0));
#206=DIRECTION('',(0.E0,0.E0,1.E0));
#207=DIRECTION('',(1.E0,0.E0,0.E0));
#208=AXIS2_PLACEMENT_3D('',#205,#206,#207);
#209=PLANE('',#208);
#210=ORIENTED_EDGE('',*,*,#185,.F.);
#211=ORIENTED_EDGE('',*,*,#199,.F.);
#212=EDGE_LOOP('',(#210,#211));
#213=FACE_OUTER_BOUND('',#212,.F.);
#215=ORIENTED_EDGE('',*,*,#214,.T.);
#217=ORIENTED_EDGE('',*,*,#216,.T.);
#219=ORIENTED_EDGE('',*,*,#218,.T.);
#221=ORIENTED_EDGE('',*,*,#220,.T.);
#223=ORIENTED_EDGE('',*,*,#222,.T.);
#225=ORIENTED_EDGE('',*,*,#224,.T.);
#227=ORIENTED_EDGE('',*,*,#226,.T.);
#229=ORIENTED_EDGE('',*,*,#228,.T.);
#230=EDGE_LOOP('',(#215,#217,#219,#221,#223,#225,#227,#229));
#231=FACE_BOUND('',#230,.F.);
#232=ADVANCED_FACE('',(#213,#231),#209,.T.);
#233=CARTESIAN_POINT('',(-4.5E0,-2.29E1,5.E0));
#234=DIRECTION('',(0.E0,-1.E0,0.E0));
#235=DIRECTION('',(1.E0,0.E0,0.E0));
#236=AXIS2_PLACEMENT_3D('',#233,#234,#235);
#237=PLANE('',#236);
#238=ORIENTED_EDGE('',*,*,#214,.F.);
#240=ORIENTED_EDGE('',*,*,#239,.T.);
#242=ORIENTED_EDGE('',*,*,#241,.T.);
#244=ORIENTED_EDGE('',*,*,#243,.F.);
#245=EDGE_LOOP('',(#238,#240,#242,#244));
#246=FACE_OUTER_BOUND('',#245,.F.);
#247=ADVANCED_FACE('',(#246),#237,.T.);
#248=CARTESIAN_POINT('',(-1.775145155909E1,-1.4E1,5.E0));
#249=DIRECTION('',(-5.575463120032E-1,-8.301458365683E-1,0.E0));
#250=DIRECTION('',(8.301458365683E-1,-5.575463120032E-1,0.E0));
#251=AXIS2_PLACEMENT_3D('',#248,#249,#250);
#252=PLANE('',#251);
#253=ORIENTED_EDGE('',*,*,#228,.F.);
#255=ORIENTED_EDGE('',*,*,#254,.T.);
#257=ORIENTED_EDGE('',*,*,#256,.T.);
#258=ORIENTED_EDGE('',*,*,#239,.F.);
#259=EDGE_LOOP('',(#253,#255,#257,#258));
#260=FACE_OUTER_BOUND('',#259,.F.);
#261=ADVANCED_FACE('',(#260),#252,.T.);
#262=CARTESIAN_POINT('',(-1.775145155909E1,1.4E1,5.E0));
#263=DIRECTION('',(-1.E0,0.E0,0.E0));
#264=DIRECTION('',(0.E0,-1.E0,0.E0));
#265=AXIS2_PLACEMENT_3D('',#262,#263,#264);
#266=PLANE('',#265);
#267=ORIENTED_EDGE('',*,*,#226,.F.);
#269=ORIENTED_EDGE('',*,*,#268,.T.);
#271=ORIENTED_EDGE('',*,*,#270,.T.);
#272=ORIENTED_EDGE('',*,*,#254,.F.);
#273=EDGE_LOOP('',(#267,#269,#271,#272));
#274=FACE_OUTER_BOUND('',#273,.F.);
#275=ADVANCED_FACE('',(#274),#266,.T.);
#276=CARTESIAN_POINT('',(-4.5E0,2.29E1,5.E0));
#277=DIRECTION('',(-5.575463120032E-1,8.301458365683E-1,0.E0));
#278=DIRECTION('',(-8.301458365683E-1,-5.575463120032E-1,0.E0));
#279=AXIS2_PLACEMENT_3D('',#276,#277,#278);
#280=PLANE('',#279);
#281=ORIENTED_EDGE('',*,*,#224,.F.);
#283=ORIENTED_EDGE('',*,*,#282,.T.);
#285=ORIENTED_EDGE('',*,*,#284,.T.);
#286=ORIENTED_EDGE('',*,*,#268,.F.);
#287=EDGE_LOOP('',(#281,#283,#285,#286));
#288=FACE_OUTER_BOUND('',#287,.F.);
#289=ADVANCED_FACE('',(#288),#280,.T.);
#290=CARTESIAN_POINT('',(4.5E0,2.29E1,5.E0));
#291=DIRECTION('',(0.E0,1.E0,0.E0));
#292=DIRECTION('',(-1.E0,0.E0,0.E0));
#293=AXIS2_PLACEMENT_3D('',#290,#291,#292);
#294=PLANE('',#293);
#295=ORIENTED_EDGE('',*,*,#222,.F.);
#297=ORIENTED_EDGE('',*,*,#296,.T.);
#299=ORIENTED_EDGE('',*,*,#298,.T.);
#300=ORIENTED_EDGE('',*,*,#282,.F.);
#301=EDGE_LOOP('',(#295,#297,#299,#300));
#302=FACE_OUTER_BOUND('',#301,.F.);
#303=ADVANCED_FACE('',(#302),#294,.T.);
#304=CARTESIAN_POINT('',(1.775145155909E1,1.4E1,5.E0));
#305=DIRECTION('',(5.575463120032E-1,8.301458365683E-1,0.E0));
#306=DIRECTION('',(-8.301458365683E-1,5.575463120032E-1,0.E0));
#307=AXIS2_PLACEMENT_3D('',#304,#305,#306);
#308=PLANE('',#307);
#309=ORIENTED_EDGE('',*,*,#220,.F.);
#311=ORIENTED_EDGE('',*,*,#310,.T.);
#313=ORIENTED_EDGE('',*,*,#312,.T.);
#314=ORIENTED_EDGE('',*,*,#296,.F.);
#315=EDGE_LOOP('',(#309,#311,#313,#314));
#316=FACE_OUTER_BOUND('',#315,.F.);
#317=ADVANCED_FACE('',(#316),#308,.T.);
#318=CARTESIAN_POINT('',(1.775145155909E1,-1.4E1,5.E0));
#319=DIRECTION('',(1.E0,0.E0,0.E0));
#320=DIRECTION('',(0.E0,1.E0,0.E0));
#321=AXIS2_PLACEMENT_3D('',#318,#319,#320);
#322=PLANE('',#321);
#323=ORIENTED_EDGE('',*,*,#218,.F.);
#325=ORIENTED_EDGE('',*,*,#324,.T.);
#327=ORIENTED_EDGE('',*,*,#326,.T.);
#328=ORIENTED_EDGE('',*,*,#310,.F.);
#329=EDGE_LOOP('',(#323,#325,#327,#328));
#330=FACE_OUTER_BOUND('',#329,.F.);
#331=ADVANCED_FACE('',(#330),#322,.T.);
#332=CARTESIAN_POINT('',(4.5E0,-2.29E1,5.E0));
#333=DIRECTION('',(5.575463120032E-1,-8.301458365683E-1,0.E0));
#334=DIRECTION('',(8.301458365683E-1,5.575463120032E-1,0.E0));
#335=AXIS2_PLACEMENT_3D('',#332,#333,#334);
#336=PLANE('',#335);
#337=ORIENTED_EDGE('',*,*,#216,.F.);
#338=ORIENTED_EDGE('',*,*,#243,.T.);
#340=ORIENTED_EDGE('',*,*,#339,.T.);
#341=ORIENTED_EDGE('',*,*,#324,.F.);
#342=EDGE_LOOP('',(#337,#338,#340,#341));
#343=FACE_OUTER_BOUND('',#342,.F.);
#344=ADVANCED_FACE('',(#343),#336,.T.);
#345=CARTESIAN_POINT('',(0.E0,0.E0,9.E0));
#346=DIRECTION('',(0.E0,0.E0,1.E0));
#347=DIRECTION('',(1.E0,0.E0,0.E0));
#348=AXIS2_PLACEMENT_3D('',#345,#346,#347);
#349=PLANE('',#348);
#350=ORIENTED_EDGE('',*,*,#241,.F.);
#351=ORIENTED_EDGE('',*,*,#256,.F.);
#352=ORIENTED_EDGE('',*,*,#270,.F.);
#353=ORIENTED_EDGE('',*,*,#284,.F.);
#354=ORIENTED_EDGE('',*,*,#298,.F.);
#355=ORIENTED_EDGE('',*,*,#312,.F.);
#356=ORIENTED_EDGE('',*,*,#326,.F.);
#357=ORIENTED_EDGE('',*,*,#339,.F.);
#358=EDGE_LOOP('',(#350,#351,#352,#353,#354,#355,#356,#357));
#359=FACE_OUTER_BOUND('',#358,.F.);
#360=ADVANCED_FACE('',(#359),#349,.T.);
#361=CLOSED_SHELL('',(#176,#191,#204,#232,#247,#261,#275,#289,#303,#317,#331,
#344,#360));
#362=MANIFOLD_SOLID_BREP('',#361);
#364=DIMENSIONAL_EXPONENTS(0.E0,0.E0,0.E0,0.E0,0.E0,0.E0,0.E0);
#366=PLANE_ANGLE_MEASURE_WITH_UNIT(PLANE_ANGLE_MEASURE(1.745329251994E-2),#365);
#367=(CONVERSION_BASED_UNIT('DEGREE',#366)NAMED_UNIT(*)PLANE_ANGLE_UNIT());
#369=UNCERTAINTY_MEASURE_WITH_UNIT(LENGTH_MEASURE(7.408482225654E-3),#363,
'closure',
'Maximum model space distance between geometric entities at asserted connectivities');
#370=(GEOMETRIC_REPRESENTATION_CONTEXT(3)GLOBAL_UNCERTAINTY_ASSIGNED_CONTEXT((
#369))GLOBAL_UNIT_ASSIGNED_CONTEXT((#363,#367,#368))REPRESENTATION_CONTEXT
('ID1','3'));
#371=CARTESIAN_POINT('',(0.E0,0.E0,0.E0));
#372=DIRECTION('',(0.E0,0.E0,1.E0));
#373=DIRECTION('',(1.E0,0.E0,0.E0));
#376=APPLICATION_CONTEXT(
'CONFIGURATION CONTROLLED 3D DESIGNS OF MECHANICAL PARTS AND ASSEMBLIES');
#377=APPLICATION_PROTOCOL_DEFINITION('international standard',
'config_control_design',1994,#376);
#378=DESIGN_CONTEXT('',#376,'design');
#379=MECHANICAL_CONTEXT('',#376,'mechanical');
#380=PRODUCT('47837','47837','NOT SPECIFIED',(#379));
#381=PRODUCT_DEFINITION_FORMATION_WITH_SPECIFIED_SOURCE('1','LAST_VERSION',#380,
.MADE.);
#390=CARTESIAN_POINT('',(0.E0,0.E0,0.E0));
#391=DIRECTION('',(0.E0,0.E0,1.E0));
#392=DIRECTION('',(1.E0,0.E0,0.E0));
#393=AXIS2_PLACEMENT_3D('',#390,#391,#392);
#394=ITEM_DEFINED_TRANSFORMATION('','',#374,#393);
#395=(REPRESENTATION_RELATIONSHIP('','',#375,#387)REPRESENTATION_RELATIONSHIP_WITH_TRANSFORMATION(#394)SHAPE_REPRESENTATION_RELATIONSHIP());
#396=CONTEXT_DEPENDENT_SHAPE_REPRESENTATION(#395,#389);
#398=DIMENSIONAL_EXPONENTS(0.E0,0.E0,0.E0,0.E0,0.E0,0.E0,0.E0);
#400=PLANE_ANGLE_MEASURE_WITH_UNIT(PLANE_ANGLE_MEASURE(1.745329251994E-2),#399);
#401=(CONVERSION_BASED_UNIT('DEGREE',#400)NAMED_UNIT(*)PLANE_ANGLE_UNIT());
#403=UNCERTAINTY_MEASURE_WITH_UNIT(LENGTH_MEASURE(7.408482225654E-3),#397,
'closure',
'Maximum model space distance between geometric entities at asserted connectivities');
#404=(GEOMETRIC_REPRESENTATION_CONTEXT(3)GLOBAL_UNCERTAINTY_ASSIGNED_CONTEXT((
#403))GLOBAL_UNIT_ASSIGNED_CONTEXT((#397,#401,#402))REPRESENTATION_CONTEXT
('ID2','3'));
#405=CARTESIAN_POINT('',(0.E0,0.E0,0.E0));
#406=DIRECTION('',(0.E0,0.E0,1.E0));
#407=DIRECTION('',(1.E0,0.E0,0.E0));
#409=MECHANICAL_CONTEXT('',#376,'mechanical');
#410=PRODUCT('161957_ASM','161957_ASM','NOT SPECIFIED',(#409));
#411=PRODUCT_DEFINITION_FORMATION_WITH_SPECIFIED_SOURCE('1','LAST_VERSION',#410,
.MADE.);
#413=PRODUCT_CATEGORY('part','');
#414=PRODUCT_RELATED_PRODUCT_CATEGORY('assembly','',(#410));
#415=PRODUCT_CATEGORY_RELATIONSHIP('','',#413,#414);
#416=PRODUCT_CATEGORY('part','');
#417=PRODUCT_RELATED_PRODUCT_CATEGORY('detail','',(#380));
#418=PRODUCT_CATEGORY_RELATIONSHIP('','',#416,#417);
#419=SECURITY_CLASSIFICATION_LEVEL('unclassified');
#420=SECURITY_CLASSIFICATION('','',#419);
#421=CC_DESIGN_SECURITY_CLASSIFICATION(#420,(#381,#411,#388));
#422=APPROVAL_STATUS('approved');
#423=APPROVAL(#422,'');
#424=CC_DESIGN_APPROVAL(#423,(#420,#381,#411,#382,#412));
#425=CALENDAR_DATE(116,21,4);
#426=COORDINATED_UNIVERSAL_TIME_OFFSET(5,0,.BEHIND.);
#427=LOCAL_TIME(13,50,1.2E1,#426);
#428=DATE_AND_TIME(#425,#427);
#429=APPROVAL_DATE_TIME(#428,#423);
#430=DATE_TIME_ROLE('creation_date');
#431=CC_DESIGN_DATE_AND_TIME_ASSIGNMENT(#428,#430,(#382,#412));
#432=DATE_TIME_ROLE('classification_date');
#433=CC_DESIGN_DATE_AND_TIME_ASSIGNMENT(#428,#432,(#420));
#434=PERSON('UNSPECIFIED','UNSPECIFIED',$,$,$,$);
#435=ORGANIZATION('UNSPECIFIED','UNSPECIFIED','UNSPECIFIED');
#436=PERSON_AND_ORGANIZATION(#434,#435);
#437=APPROVAL_ROLE('approver');
#438=APPROVAL_PERSON_ORGANIZATION(#436,#423,#437);
#439=PERSON_AND_ORGANIZATION_ROLE('creator');
#440=CC_DESIGN_PERSON_AND_ORGANIZATION_ASSIGNMENT(#436,#439,(#381,#411,#382,
#412));
#441=PERSON_AND_ORGANIZATION_ROLE('design_supplier');
#442=CC_DESIGN_PERSON_AND_ORGANIZATION_ASSIGNMENT(#436,#441,(#381,#411));
#443=PERSON_AND_ORGANIZATION_ROLE('classification_officer');
#444=CC_DESIGN_PERSON_AND_ORGANIZATION_ASSIGNMENT(#436,#443,(#420));
#445=PERSON_AND_ORGANIZATION_ROLE('design_owner');
#446=CC_DESIGN_PERSON_AND_ORGANIZATION_ASSIGNMENT(#436,#445,(#410,#380));
#5=CIRCLE('',#4,2.6E1);
#10=CIRCLE('',#9,2.6E1);
#23=CIRCLE('',#22,2.6E1);
#28=CIRCLE('',#27,2.6E1);
#170=EDGE_CURVE('',#127,#128,#5,.T.);
#172=EDGE_CURVE('',#128,#127,#10,.T.);
#183=EDGE_CURVE('',#127,#131,#14,.T.);
#185=EDGE_CURVE('',#131,#132,#23,.T.);
#187=EDGE_CURVE('',#128,#132,#18,.T.);
#199=EDGE_CURVE('',#132,#131,#28,.T.);
#214=EDGE_CURVE('',#151,#152,#32,.T.);
#216=EDGE_CURVE('',#152,#154,#36,.T.);
#218=EDGE_CURVE('',#154,#157,#40,.T.);
#220=EDGE_CURVE('',#157,#158,#44,.T.);
#222=EDGE_CURVE('',#158,#160,#48,.T.);
#224=EDGE_CURVE('',#160,#162,#52,.T.);
#226=EDGE_CURVE('',#162,#164,#56,.T.);
#228=EDGE_CURVE('',#164,#151,#60,.T.);
#239=EDGE_CURVE('',#151,#135,#64,.T.);
#241=EDGE_CURVE('',#135,#136,#96,.T.);
#243=EDGE_CURVE('',#152,#136,#92,.T.);
#254=EDGE_CURVE('',#164,#148,#68,.T.);
#256=EDGE_CURVE('',#148,#135,#100,.T.);
#268=EDGE_CURVE('',#162,#146,#72,.T.);
#270=EDGE_CURVE('',#146,#148,#104,.T.);
#282=EDGE_CURVE('',#160,#144,#76,.T.);
#284=EDGE_CURVE('',#144,#146,#108,.T.);
#296=EDGE_CURVE('',#158,#142,#80,.T.);
#298=EDGE_CURVE('',#142,#144,#112,.T.);
#310=EDGE_CURVE('',#157,#141,#84,.T.);
#312=EDGE_CURVE('',#141,#142,#116,.T.);
#324=EDGE_CURVE('',#154,#138,#88,.T.);
#326=EDGE_CURVE('',#138,#141,#120,.T.);
#339=EDGE_CURVE('',#136,#138,#124,.T.);
#363=(LENGTH_UNIT()NAMED_UNIT(*)SI_UNIT(.MILLI.,.METRE.));
#365=(NAMED_UNIT(*)PLANE_ANGLE_UNIT()SI_UNIT($,.RADIAN.));
#368=(NAMED_UNIT(*)SI_UNIT($,.STERADIAN.)SOLID_ANGLE_UNIT());
#374=AXIS2_PLACEMENT_3D('',#371,#372,#373);
#375=ADVANCED_BREP_SHAPE_REPRESENTATION('',(#374,#362),#370);
#382=PRODUCT_DEFINITION('design','',#381,#378);
#383=PRODUCT_DEFINITION_SHAPE('','SHAPE FOR 47837.',#382);
#384=SHAPE_DEFINITION_REPRESENTATION(#383,#375);
#385=SHAPE_DEFINITION_REPRESENTATION(#386,#387);
#386=PRODUCT_DEFINITION_SHAPE('','SHAPE FOR 161957_ASM.',#412);
#387=SHAPE_REPRESENTATION('',(#393,#408),#404);
#388=NEXT_ASSEMBLY_USAGE_OCCURRENCE('0','Next assembly relationship','47837',
#412,#382,$);
#389=PRODUCT_DEFINITION_SHAPE('Placement #0',
'Placement of 47837 with respect to 161957_ASM',#388);
#397=(LENGTH_UNIT()NAMED_UNIT(*)SI_UNIT(.MILLI.,.METRE.));
#399=(NAMED_UNIT(*)PLANE_ANGLE_UNIT()SI_UNIT($,.RADIAN.));
#402=(NAMED_UNIT(*)SI_UNIT($,.STERADIAN.)SOLID_ANGLE_UNIT());
#408=AXIS2_PLACEMENT_3D('',#405,#406,#407);
#412=PRODUCT_DEFINITION('design','',#411,#378);
ENDSEC;
END-ISO-10303-21;
