 PTC IGES file: 161957.igs                                              S      1
1H,,1H;,10H161957_ASM,10H161957.igs,                                    G      1
52HCreo Parametric by Parametric Technology Corporation,7H2016010,32,   G      2
38,7,38,15,10H161957_ASM,1.,2,2HMM,32768,0.5,15H20160421.135012,        G      3
0.00740848,74.0878,8Hpdmadmin,7HUnknown,10,0,15H20160421.135012;        G      4
     314       1       1       1       0       0       0       001000200D      1
     314       0       4       1       0                   COLOR       1D      2
     314       2       1       1       0       0       0       001000200D      3
     314       0       1       1       0                   COLOR       2D      4
     314       3       1       1       0       0       0       001000200D      5
     314       0       1       1       0                   COLOR       3D      6
     314       4       1       1       0       0       0       001000200D      7
     314       0       8       1       0                   COLOR       4D      8
     314       5       1       1       0       0       0       001000200D      9
     314       0       8       1       0                   COLOR       5D     10
     314       6       1       1       0       0       0       001000200D     11
     314       0       8       1       0                   COLOR       6D     12
     314       7       1       1       0       0       0       001000200D     13
     314       0       8       1       0                   COLOR       7D     14
     314       8       1       1       0       0       0       001000200D     15
     314       0       5       1       0                   COLOR       8D     16
     314       9       1       1       0       0       0       001000200D     17
     314       0       8       1       0                   COLOR       9D     18
     124      10       1       1       0       0       0       001000000D     19
     124       0       0       1       0                   XFORM       1D     20
     100      11       1       1   47837       0      19       001010000D     21
     100       0       0       1       0                     ARC       1D     22
     124      12       1       1       0       0       0       001000000D     23
     124       0       0       1       0                   XFORM       2D     24
     100      13       1       1   47837       0      23       001010000D     25
     100       0       0       1       0                     ARC       2D     26
     110      14       1       1   47837       0       0       001010000D     27
     110       0       0       1       0                    LINE       1D     28
     110      15       1       1   47837       0       0       001010000D     29
     110       0       0       1       0                    LINE       2D     30
     124      16       1       1       0       0       0       001000000D     31
     124       0       0       1       0                   XFORM       3D     32
     100      17       1       1   47837       0      31       001010000D     33
     100       0       0       1       0                     ARC       3D     34
     124      18       1       1       0       0       0       001000000D     35
     124       0       0       1       0                   XFORM       4D     36
     100      19       1       1   47837       0      35       001010000D     37
     100       0       0       1       0                     ARC       4D     38
     110      20       1       1   47837       0       0       001010000D     39
     110       0       0       1       0                    LINE       3D     40
     110      21       1       1   47837       0       0       001010000D     41
     110       0       0       1       0                    LINE       4D     42
     110      22       1       1   47837       0       0       001010000D     43
     110       0       0       1       0                    LINE       5D     44
     110      23       1       1   47837       0       0       001010000D     45
     110       0       0       1       0                    LINE       6D     46
     110      24       1       1   47837       0       0       001010000D     47
     110       0       0       1       0                    LINE       7D     48
     110      25       1       1   47837       0       0       001010000D     49
     110       0       0       1       0                    LINE       8D     50
     110      26       1       1   47837       0       0       001010000D     51
     110       0       0       1       0                    LINE       9D     52
     110      27       1       1   47837       0       0       001010000D     53
     110       0       0       1       0                    LINE      10D     54
     110      28       1       1   47837       0       0       001010000D     55
     110       0       0       1       0                    LINE      11D     56
     110      29       1       1   47837       0       0       001010000D     57
     110       0       0       1       0                    LINE      12D     58
     110      30       1       1   47837       0       0       001010000D     59
     110       0       0       1       0                    LINE      13D     60
     110      31       1       1   47837       0       0       001010000D     61
     110       0       0       1       0                    LINE      14D     62
     110      32       1       1   47837       0       0       001010000D     63
     110       0       0       1       0                    LINE      15D     64
     110      33       1       1   47837       0       0       001010000D     65
     110       0       0       1       0                    LINE      16D     66
     110      34       1       1   47837       0       0       001010000D     67
     110       0       0       1       0                    LINE      17D     68
     110      35       1       1   47837       0       0       001010000D     69
     110       0       0       1       0                    LINE      18D     70
     110      36       1       1   47837       0       0       001010000D     71
     110       0       0       1       0                    LINE      19D     72
     110      37       1       1   47837       0       0       001010000D     73
     110       0       0       1       0                    LINE      20D     74
     110      38       1       1   47837       0       0       001010000D     75
     110       0       0       1       0                    LINE      21D     76
     110      39       1       1   47837       0       0       001010000D     77
     110       0       0       1       0                    LINE      22D     78
     110      40       1       1   47837       0       0       001010000D     79
     110       0       0       1       0                    LINE      23D     80
     110      41       1       1   47837       0       0       001010000D     81
     110       0       0       1       0                    LINE      24D     82
     110      42       1       1   47837       0       0       001010000D     83
     110       0       0       1       0                    LINE      25D     84
     110      43       1       1   47837       0       0       001010000D     85
     110       0       0       1       0                    LINE      26D     86
     502      44       1       1   47837       0       0       001010000D     87
     502       0       0       8       1                  VERTEX       1D     88
     504      52       1       1   47837       0       0       000010001D     89
     504       0       0       7       1                    EDGE       1D     90
     128      59       1       1   47837       0       0       001010000D     91
     128       0       0       4       0                  SPLSRF       1D     92
     508      63       1       1   47837       0       0       001010000D     93
     508       0       0       1       1                EDGELOOP       1D     94
     510      64       1       1   47837       0       0       000010000D     95
     510       0       0       1       1                    FACE       1D     96
     110      65       1       1   47837       0       0       001010000D     97
     110       0       0       1       0                    LINE      27D     98
     110      66       1       1   47837       0       0       001010000D     99
     110       0       0       1       0                    LINE      28D    100
     120      67       1       1   47837       0       0       001010000D    101
     120       0       0       1       0                    SREV       1D    102
     508      68       1       1   47837       0       0       001010000D    103
     508       0       0       1       1                EDGELOOP       2D    104
     510      69       1       1   47837       0       0       000010000D    105
     510       0       0       1       1                    FACE       2D    106
     110      70       1       1   47837       0       0       001010000D    107
     110       0       0       1       0                    LINE      29D    108
     110      71       1       1   47837       0       0       001010000D    109
     110       0       0       1       0                    LINE      30D    110
     120      72       1       1   47837       0       0       001010000D    111
     120       0       0       1       0                    SREV       2D    112
     508      73       1       1   47837       0       0       001010000D    113
     508       0       0       1       1                EDGELOOP       3D    114
     510      74       1       1   47837       0       0       000010000D    115
     510       0       0       1       1                    FACE       3D    116
     128      75       1       1   47837       0       0       001010000D    117
     128       0       0       4       0                  SPLSRF       2D    118
     508      79       1       1   47837       0       0       001010000D    119
     508       0       0       1       1                EDGELOOP       4D    120
     508      80       1       1   47837       0       0       001010000D    121
     508       0       0       2       1                EDGELOOP       5D    122
     510      82       1       1   47837       0       0       000010000D    123
     510       0       0       1       1                    FACE       4D    124
     128      83       1       1   47837       0       0       001010000D    125
     128       0       0       6       0                  SPLSRF       3D    126
     508      89       1       1   47837       0       0       001010000D    127
     508       0       0       1       1                EDGELOOP       6D    128
     510      90       1       1   47837       0       0       000010000D    129
     510       0       0       1       1                    FACE       5D    130
     128      91       1       1   47837       0       0       001010000D    131
     128       0       0       8       0                  SPLSRF       4D    132
     508      99       1       1   47837       0       0       001010000D    133
     508       0       0       1       1                EDGELOOP       7D    134
     510     100       1       1   47837       0       0       000010000D    135
     510       0       0       1       1                    FACE       6D    136
     128     101       1       1   47837       0       0       001010000D    137
     128       0       0       7       0                  SPLSRF       5D    138
     508     108       1       1   47837       0       0       001010000D    139
     508       0       0       1       1                EDGELOOP       8D    140
     510     109       1       1   47837       0       0       000010000D    141
     510       0       0       1       1                    FACE       7D    142
     128     110       1       1   47837       0       0       001010000D    143
     128       0       0       8       0                  SPLSRF       6D    144
     508     118       1       1   47837       0       0       001010000D    145
     508       0       0       1       1                EDGELOOP       9D    146
     510     119       1       1   47837       0       0       000010000D    147
     510       0       0       1       1                    FACE       8D    148
     128     120       1       1   47837       0       0       001010000D    149
     128       0       0       6       0                  SPLSRF       7D    150
     508     126       1       1   47837       0       0       001010000D    151
     508       0       0       1       1                EDGELOOP      10D    152
     510     127       1       1   47837       0       0       000010000D    153
     510       0       0       1       1                    FACE       9D    154
     128     128       1       1   47837       0       0       001010000D    155
     128       0       0       8       0                  SPLSRF       8D    156
     508     136       1       1   47837       0       0       001010000D    157
     508       0       0       1       1                EDGELOOP      11D    158
     510     137       1       1   47837       0       0       000010000D    159
     510       0       0       1       1                    FACE      10D    160
     128     138       1       1   47837       0       0       001010000D    161
     128       0       0       7       0                  SPLSRF       9D    162
     508     145       1       1   47837       0       0       001010000D    163
     508       0       0       1       1                EDGELOOP      12D    164
     510     146       1       1   47837       0       0       000010000D    165
     510       0       0       1       1                    FACE      11D    166
     128     147       1       1   47837       0       0       001010000D    167
     128       0       0       8       0                  SPLSRF      10D    168
     508     155       1       1   47837       0       0       001010000D    169
     508       0       0       1       1                EDGELOOP      13D    170
     510     156       1       1   47837       0       0       000010000D    171
     510       0       0       1       1                    FACE      12D    172
     128     157       1       1   47837       0       0       001010000D    173
     128       0       8       6       0                  SPLSRF      11D    174
     508     163       1       1   47837       0       0       001010000D    175
     508       0       0       2       1                EDGELOOP      14D    176
     510     165       1       1   47837       0       0       000010000D    177
     510       0       8       1       1                    FACE      13D    178
     514     166       1       1   47837       0       0       000010000D    179
     514       0       0       2       1                   SHELL       1D    180
     186     168       1       1       0       0       0       000000000D    181
     186       0       0       1       0                    MSBR       1D    182
     406     169       1       1       0       0       0       001000000D    183
     406       0       0       1      15                    PROP       1D    184
     402     170       1       1       0       0       0       000000300D    185
     402       0       0       5       7                   LAYER       1D    186
314,1.1D0,1.2D0,1D2;                                                   1P      1
314,3.92D1,1.2D0,1.2D0;                                                3P      2
314,4.1D1,0D0,2.2D1;                                                   5P      3
314,6.952D1,7.426D1,7.9D1;                                             7P      4
314,7.84314D1,7.84314D1,7.84314D1;                                     9P      5
314,8.784D1,9.49D1,1D2;                                               11P      6
314,9.6D1,9.6D1,9.6D1;                                                13P      7
314,9.8D1,6.27D1,0D0;                                                 15P      8
314,1D2,1D2,9.49D1;                                                   17P      9
124,1D0,0D0,0D0,0D0,0D0,1D0,0D0,0D0,0D0,0D0,1D0,0D0;                  19P     10
100,0D0,0D0,0D0,2.6D1,0D0,-2.6D1,0D0;                                 21P     11
124,-1D0,0D0,0D0,0D0,0D0,-1D0,0D0,0D0,0D0,0D0,1D0,0D0;                23P     12
100,0D0,0D0,0D0,2.6D1,0D0,-2.6D1,0D0;                                 25P     13
110,2.6D1,0D0,0D0,2.6D1,0D0,5D0;                                      27P     14
110,-2.6D1,0D0,0D0,-2.6D1,0D0,5D0;                                    29P     15
124,1D0,0D0,0D0,0D0,0D0,1D0,0D0,0D0,0D0,0D0,1D0,5D0;                  31P     16
100,0D0,0D0,0D0,2.6D1,0D0,-2.6D1,0D0;                                 33P     17
124,-1D0,0D0,0D0,0D0,0D0,-1D0,0D0,0D0,0D0,0D0,1D0,5D0;                35P     18
100,0D0,0D0,0D0,2.6D1,0D0,-2.6D1,0D0;                                 37P     19
110,-4.5D0,-2.29D1,5D0,4.5D0,-2.29D1,5D0;                             39P     20
110,4.5D0,-2.29D1,5D0,1.775145155909D1,-1.4D1,5D0;                    41P     21
110,1.775145155909D1,-1.4D1,5D0,1.775145155909D1,1.4D1,5D0;           43P     22
110,1.775145155909D1,1.4D1,5D0,4.5D0,2.29D1,5D0;                      45P     23
110,4.5D0,2.29D1,5D0,-4.5D0,2.29D1,5D0;                               47P     24
110,-4.5D0,2.29D1,5D0,-1.775145155909D1,1.4D1,5D0;                    49P     25
110,-1.775145155909D1,1.4D1,5D0,-1.775145155909D1,-1.4D1,5D0;         51P     26
110,-1.775145155909D1,-1.4D1,5D0,-4.5D0,-2.29D1,5D0;                  53P     27
110,-4.5D0,-2.29D1,5D0,-4.5D0,-2.29D1,9D0;                            55P     28
110,-1.775145155909D1,-1.4D1,5D0,-1.775145155909D1,-1.4D1,9D0;        57P     29
110,-1.775145155909D1,1.4D1,5D0,-1.775145155909D1,1.4D1,9D0;          59P     30
110,-4.5D0,2.29D1,5D0,-4.5D0,2.29D1,9D0;                              61P     31
110,4.5D0,2.29D1,5D0,4.5D0,2.29D1,9D0;                                63P     32
110,1.775145155909D1,1.4D1,5D0,1.775145155909D1,1.4D1,9D0;            65P     33
110,1.775145155909D1,-1.4D1,5D0,1.775145155909D1,-1.4D1,9D0;          67P     34
110,4.5D0,-2.29D1,5D0,4.5D0,-2.29D1,9D0;                              69P     35
110,-4.5D0,-2.29D1,9D0,4.5D0,-2.29D1,9D0;                             71P     36
110,-1.775145155909D1,-1.4D1,9D0,-4.5D0,-2.29D1,9D0;                  73P     37
110,-1.775145155909D1,1.4D1,9D0,-1.775145155909D1,-1.4D1,9D0;         75P     38
110,-4.5D0,2.29D1,9D0,-1.775145155909D1,1.4D1,9D0;                    77P     39
110,4.5D0,2.29D1,9D0,-4.5D0,2.29D1,9D0;                               79P     40
110,1.775145155909D1,1.4D1,9D0,4.5D0,2.29D1,9D0;                      81P     41
110,1.775145155909D1,-1.4D1,9D0,1.775145155909D1,1.4D1,9D0;           83P     42
110,4.5D0,-2.29D1,9D0,1.775145155909D1,-1.4D1,9D0;                    85P     43
502,20,2.6D1,0D0,0D0,-2.6D1,0D0,0D0,2.6D1,0D0,5D0,-2.6D1,0D0,         87P     44
5D0,-4.5D0,-2.29D1,9D0,4.5D0,-2.29D1,9D0,1.775145155909D1,            87P     45
-1.4D1,9D0,1.775145155909D1,1.4D1,9D0,4.5D0,2.29D1,9D0,-4.5D0,        87P     46
2.29D1,9D0,-1.775145155909D1,1.4D1,9D0,-1.775145155909D1,-1.4D1,      87P     47
9D0,-4.5D0,-2.29D1,5D0,4.5D0,-2.29D1,5D0,1.775145155909D1,            87P     48
-1.4D1,5D0,1.775145155909D1,1.4D1,5D0,4.5D0,2.29D1,5D0,-4.5D0,        87P     49
2.29D1,5D0,-1.775145155909D1,1.4D1,5D0,-1.775145155909D1,-1.4D1,      87P     50
5D0;                                                                  87P     51
504,30,21,87,1,87,2,25,87,2,87,1,33,87,3,87,4,37,87,4,87,3,27,        89P     52
87,1,87,3,29,87,2,87,4,71,87,5,87,6,85,87,6,87,7,81,87,8,87,9,        89P     53
79,87,9,87,10,77,87,10,87,11,73,87,12,87,5,39,87,13,87,14,41,87,      89P     54
14,87,15,45,87,16,87,17,47,87,17,87,18,49,87,18,87,19,53,87,20,       89P     55
87,13,55,87,13,87,5,69,87,14,87,6,63,87,17,87,9,61,87,18,87,10,       89P     56
83,87,7,87,8,75,87,11,87,12,43,87,15,87,16,51,87,19,87,20,67,87,      89P     57
15,87,7,65,87,16,87,8,59,87,19,87,11,57,87,20,87,12;                  89P     58
128,1,1,1,1,0,0,1,0,0,-2.704D1,-2.704D1,2.704D1,2.704D1,              91P     59
-2.704D1,-2.704D1,2.704D1,2.704D1,1D0,1D0,1D0,1D0,-2.704D1,           91P     60
-2.704D1,0D0,2.704D1,-2.704D1,0D0,-2.704D1,2.704D1,0D0,2.704D1,       91P     61
2.704D1,0D0,-2.704D1,2.704D1,-2.704D1,2.704D1;                        91P     62
508,2,0,89,1,1,0,0,89,2,1,0;                                          93P     63
510,91,1,0,93;                                                        95P     64
110,0D0,0D0,0D0,0D0,0D0,1D0;                                          97P     65
110,2.6D1,0D0,-1D-1,2.6D1,0D0,5.1D0;                                  99P     66
120,97,99,-6.283185307180D-2,3.204424506662D0;                       101P     67
508,4,0,89,1,0,0,0,89,5,1,0,0,89,3,1,0,0,89,6,0,0;                   103P     68
510,101,1,0,103;                                                     105P     69
110,0D0,0D0,0D0,0D0,0D0,1D0;                                         107P     70
110,2.6D1,0D0,-1D-1,2.6D1,0D0,5.1D0;                                 109P     71
120,107,109,3.078760800518D0,6.346017160251D0;                       111P     72
508,4,0,89,2,0,0,0,89,6,1,0,0,89,4,1,0,0,89,5,0,0;                   113P     73
510,111,1,0,113;                                                     115P     74
128,1,1,1,1,0,0,1,0,0,-2.704D1,-2.704D1,2.704D1,2.704D1,             117P     75
-2.704D1,-2.704D1,2.704D1,2.704D1,1D0,1D0,1D0,1D0,-2.704D1,          117P     76
-2.704D1,5D0,2.704D1,-2.704D1,5D0,-2.704D1,2.704D1,5D0,2.704D1,      117P     77
2.704D1,5D0,-2.704D1,2.704D1,-2.704D1,2.704D1;                       117P     78
508,2,0,89,3,0,0,0,89,4,0,0;                                         119P     79
508,8,0,89,13,1,0,0,89,14,1,0,0,89,25,1,0,0,89,15,1,0,0,89,16,1,     121P     80
0,0,89,17,1,0,0,89,26,1,0,0,89,18,1,0;                               121P     81
510,117,2,0,119,121;                                                 123P     82
128,1,1,1,1,0,0,1,0,0,-1.8D-1,-1.8D-1,9.18D0,9.18D0,                 125P     83
-8.890534292156D-2,-8.890534292156D-2,4.088905342922D0,              125P     84
4.088905342922D0,1D0,1D0,1D0,1D0,-4.68D0,-2.29D1,                    125P     85
4.911094657078D0,4.68D0,-2.29D1,4.911094657078D0,-4.68D0,            125P     86
-2.29D1,9.088905342922D0,4.68D0,-2.29D1,9.088905342922D0,            125P     87
-1.8D-1,9.18D0,-8.890534292156D-2,4.088905342922D0;                  125P     88
508,4,0,89,13,0,0,0,89,19,1,0,0,89,7,1,0,0,89,20,0,0;                127P     89
510,125,1,0,127;                                                     129P     90
128,1,1,1,1,0,0,1,0,0,-3.192559903418D-1,-3.192559903418D-1,         131P     91
1.628205550743D1,1.628205550743D1,-8.890534292156D-2,                131P     92
-8.890534292156D-2,4.088905342922D0,4.088905342922D0,1D0,1D0,        131P     93
1D0,1D0,-1.801648059027D1,-1.3822D1,4.911094657078D0,                131P     94
-4.234970968818D0,-2.3078D1,4.911094657078D0,-1.801648059027D1,      131P     95
-1.3822D1,9.088905342922D0,-4.234970968818D0,-2.3078D1,              131P     96
9.088905342922D0,-3.192559903418D-1,1.628205550743D1,                131P     97
-8.890534292156D-2,4.088905342922D0;                                 131P     98
508,4,0,89,18,0,0,0,89,30,1,0,0,89,12,1,0,0,89,19,0,0;               133P     99
510,131,1,0,133;                                                     135P    100
128,1,1,1,1,0,0,1,0,0,-5.6D-1,-5.6D-1,2.856D1,2.856D1,               137P    101
-8.890534292156D-2,-8.890534292156D-2,4.088905342922D0,              137P    102
4.088905342922D0,1D0,1D0,1D0,1D0,-1.775145155909D1,1.456D1,          137P    103
4.911094657078D0,-1.775145155909D1,-1.456D1,4.911094657078D0,        137P    104
-1.775145155909D1,1.456D1,9.088905342922D0,-1.775145155909D1,        137P    105
-1.456D1,9.088905342922D0,-5.6D-1,2.856D1,-8.890534292156D-2,        137P    106
4.088905342922D0;                                                    137P    107
508,4,0,89,26,0,0,0,89,29,1,0,0,89,24,1,0,0,89,30,0,0;               139P    108
510,137,1,0,139;                                                     141P    109
128,1,1,1,1,0,0,1,0,0,-3.192559903418D-1,-3.192559903418D-1,         143P    110
1.628205550743D1,1.628205550743D1,-8.890534292156D-2,                143P    111
-8.890534292156D-2,4.088905342922D0,4.088905342922D0,1D0,1D0,        143P    112
1D0,1D0,-4.234970968818D0,2.3078D1,4.911094657078D0,                 143P    113
-1.801648059027D1,1.3822D1,4.911094657078D0,-4.234970968818D0,       143P    114
2.3078D1,9.088905342922D0,-1.801648059027D1,1.3822D1,                143P    115
9.088905342922D0,-3.192559903418D-1,1.628205550743D1,                143P    116
-8.890534292156D-2,4.088905342922D0;                                 143P    117
508,4,0,89,17,0,0,0,89,22,1,0,0,89,11,1,0,0,89,29,0,0;               145P    118
510,143,1,0,145;                                                     147P    119
128,1,1,1,1,0,0,1,0,0,-1.8D-1,-1.8D-1,9.18D0,9.18D0,                 149P    120
-8.890534292156D-2,-8.890534292156D-2,4.088905342922D0,              149P    121
4.088905342922D0,1D0,1D0,1D0,1D0,4.68D0,2.29D1,4.911094657078D0,     149P    122
-4.68D0,2.29D1,4.911094657078D0,4.68D0,2.29D1,9.088905342922D0,      149P    123
-4.68D0,2.29D1,9.088905342922D0,-1.8D-1,9.18D0,                      149P    124
-8.890534292156D-2,4.088905342922D0;                                 149P    125
508,4,0,89,16,0,0,0,89,21,1,0,0,89,10,1,0,0,89,22,0,0;               151P    126
510,149,1,0,151;                                                     153P    127
128,1,1,1,1,0,0,1,0,0,-3.192559903418D-1,-3.192559903418D-1,         155P    128
1.628205550743D1,1.628205550743D1,-8.890534292156D-2,                155P    129
-8.890534292156D-2,4.088905342922D0,4.088905342922D0,1D0,1D0,        155P    130
1D0,1D0,1.801648059027D1,1.3822D1,4.911094657078D0,                  155P    131
4.234970968818D0,2.3078D1,4.911094657078D0,1.801648059027D1,         155P    132
1.3822D1,9.088905342922D0,4.234970968818D0,2.3078D1,                 155P    133
9.088905342922D0,-3.192559903418D-1,1.628205550743D1,                155P    134
-8.890534292156D-2,4.088905342922D0;                                 155P    135
508,4,0,89,15,0,0,0,89,28,1,0,0,89,9,1,0,0,89,21,0,0;                157P    136
510,155,1,0,157;                                                     159P    137
128,1,1,1,1,0,0,1,0,0,-5.6D-1,-5.6D-1,2.856D1,2.856D1,               161P    138
-8.890534292156D-2,-8.890534292156D-2,4.088905342922D0,              161P    139
4.088905342922D0,1D0,1D0,1D0,1D0,1.775145155909D1,-1.456D1,          161P    140
4.911094657078D0,1.775145155909D1,1.456D1,4.911094657078D0,          161P    141
1.775145155909D1,-1.456D1,9.088905342922D0,1.775145155909D1,         161P    142
1.456D1,9.088905342922D0,-5.6D-1,2.856D1,-8.890534292156D-2,         161P    143
4.088905342922D0;                                                    161P    144
508,4,0,89,25,0,0,0,89,27,1,0,0,89,23,1,0,0,89,28,0,0;               163P    145
510,161,1,0,163;                                                     165P    146
128,1,1,1,1,0,0,1,0,0,-3.192559903418D-1,-3.192559903418D-1,         167P    147
1.628205550743D1,1.628205550743D1,-8.890534292156D-2,                167P    148
-8.890534292156D-2,4.088905342922D0,4.088905342922D0,1D0,1D0,        167P    149
1D0,1D0,4.234970968818D0,-2.3078D1,4.911094657078D0,                 167P    150
1.801648059027D1,-1.3822D1,4.911094657078D0,4.234970968818D0,        167P    151
-2.3078D1,9.088905342922D0,1.801648059027D1,-1.3822D1,               167P    152
9.088905342922D0,-3.192559903418D-1,1.628205550743D1,                167P    153
-8.890534292156D-2,4.088905342922D0;                                 167P    154
508,4,0,89,14,0,0,0,89,20,1,0,0,89,8,1,0,0,89,27,0,0;                169P    155
510,167,1,0,169;                                                     171P    156
128,1,1,1,1,0,0,1,0,0,-1.846150962145D1,-1.846150962145D1,           173P    157
1.846150962145D1,1.846150962145D1,-2.3816D1,-2.3816D1,2.3816D1,      173P    158
2.3816D1,1D0,1D0,1D0,1D0,-1.846150962145D1,-2.3816D1,9D0,            173P    159
1.846150962145D1,-2.3816D1,9D0,-1.846150962145D1,2.3816D1,9D0,       173P    160
1.846150962145D1,2.3816D1,9D0,-1.846150962145D1,                     173P    161
1.846150962145D1,-2.3816D1,2.3816D1;                                 173P    162
508,8,0,89,7,0,0,0,89,12,0,0,0,89,24,0,0,0,89,11,0,0,0,89,10,0,      175P    163
0,0,89,9,0,0,0,89,23,0,0,0,89,8,0,0;                                 175P    164
510,173,1,0,175;                                                     177P    165
514,13,95,0,105,1,115,1,123,1,129,1,135,1,141,1,147,1,153,1,159,     179P    166
1,165,1,171,1,177,1;                                                 179P    167
186,179,1,0;                                                         181P    168
406,1,5H47837;                                                       183P    169
402,78,21,25,27,29,33,37,39,41,43,45,47,49,51,53,55,57,59,61,63,     185P    170
65,67,69,71,73,75,77,79,81,83,85,87,89,91,93,95,97,99,101,103,       185P    171
105,107,109,111,113,115,117,119,121,123,125,127,129,131,133,135,     185P    172
137,139,141,143,145,147,149,151,153,155,157,159,161,163,165,167,     185P    173
169,171,173,175,177,179,181,0,1,183;                                 185P    174
S      1G      4D    186P    174                                        T      1
