ISO-10303-21;
HEADER;
FILE_DESCRIPTION((''),'2;1');
FILE_NAME('158529_SW','2011-10-06T',('banengservice'),('BANNER ENGINEERING'),
'PRO/ENGINEER BY PARAMETRIC TECHNOLOGY CORPORATION, 2009141',
'PRO/ENGINEER BY PARAMETRIC TECHNOLOGY CORPORATION, 2009141','');
FILE_SCHEMA(('CONFIG_CONTROL_DESIGN'));
ENDSEC;
DATA;
#1=DIRECTION('',(1.E0,0.E0,0.E0));
#2=VECTOR('',#1,3.937007874016E0);
#3=CARTESIAN_POINT('',(0.E0,0.E0,0.E0));
#4=LINE('',#3,#2);
#5=DIRECTION('',(0.E0,1.E0,0.E0));
#6=VECTOR('',#5,3.937007874016E0);
#7=CARTESIAN_POINT('',(3.937007874016E0,0.E0,0.E0));
#8=LINE('',#7,#6);
#9=DIRECTION('',(-1.E0,0.E0,0.E0));
#10=VECTOR('',#9,3.937007874016E0);
#11=CARTESIAN_POINT('',(3.937007874016E0,3.937007874016E0,0.E0));
#12=LINE('',#11,#10);
#13=DIRECTION('',(0.E0,-1.E0,0.E0));
#14=VECTOR('',#13,3.937007874016E0);
#15=CARTESIAN_POINT('',(0.E0,3.937007874016E0,0.E0));
#16=LINE('',#15,#14);
#17=CARTESIAN_POINT('',(3.759842519685E0,1.377952755906E-1,0.E0));
#18=DIRECTION('',(0.E0,0.E0,1.E0));
#19=DIRECTION('',(1.E0,0.E0,0.E0));
#20=AXIS2_PLACEMENT_3D('',#17,#18,#19);
#22=CARTESIAN_POINT('',(3.759842519685E0,1.377952755906E-1,0.E0));
#23=DIRECTION('',(0.E0,0.E0,1.E0));
#24=DIRECTION('',(-1.E0,0.E0,0.E0));
#25=AXIS2_PLACEMENT_3D('',#22,#23,#24);
#27=CARTESIAN_POINT('',(1.377952755906E-1,3.759842519685E0,0.E0));
#28=DIRECTION('',(0.E0,0.E0,1.E0));
#29=DIRECTION('',(1.E0,0.E0,0.E0));
#30=AXIS2_PLACEMENT_3D('',#27,#28,#29);
#32=CARTESIAN_POINT('',(1.377952755906E-1,3.759842519685E0,0.E0));
#33=DIRECTION('',(0.E0,0.E0,1.E0));
#34=DIRECTION('',(-1.E0,0.E0,0.E0));
#35=AXIS2_PLACEMENT_3D('',#32,#33,#34);
#37=DIRECTION('',(0.E0,0.E0,1.E0));
#38=VECTOR('',#37,3.543307086614E-1);
#39=CARTESIAN_POINT('',(0.E0,0.E0,0.E0));
#40=LINE('',#39,#38);
#41=DIRECTION('',(0.E0,0.E0,1.E0));
#42=VECTOR('',#41,3.543307086614E-1);
#43=CARTESIAN_POINT('',(0.E0,3.937007874016E0,0.E0));
#44=LINE('',#43,#42);
#45=DIRECTION('',(0.E0,0.E0,1.E0));
#46=VECTOR('',#45,3.543307086614E-1);
#47=CARTESIAN_POINT('',(3.937007874016E0,3.937007874016E0,0.E0));
#48=LINE('',#47,#46);
#49=DIRECTION('',(0.E0,0.E0,1.E0));
#50=VECTOR('',#49,3.543307086614E-1);
#51=CARTESIAN_POINT('',(3.937007874016E0,0.E0,0.E0));
#52=LINE('',#51,#50);
#53=DIRECTION('',(1.E0,0.E0,0.E0));
#54=VECTOR('',#53,3.937007874016E0);
#55=CARTESIAN_POINT('',(0.E0,0.E0,3.543307086614E-1));
#56=LINE('',#55,#54);
#57=DIRECTION('',(0.E0,-1.E0,0.E0));
#58=VECTOR('',#57,3.937007874016E0);
#59=CARTESIAN_POINT('',(0.E0,3.937007874016E0,3.543307086614E-1));
#60=LINE('',#59,#58);
#61=DIRECTION('',(-1.E0,0.E0,0.E0));
#62=VECTOR('',#61,3.937007874016E0);
#63=CARTESIAN_POINT('',(3.937007874016E0,3.937007874016E0,3.543307086614E-1));
#64=LINE('',#63,#62);
#65=DIRECTION('',(0.E0,1.E0,0.E0));
#66=VECTOR('',#65,3.937007874016E0);
#67=CARTESIAN_POINT('',(3.937007874016E0,0.E0,3.543307086614E-1));
#68=LINE('',#67,#66);
#69=CARTESIAN_POINT('',(3.759842519685E0,1.377952755906E-1,3.543307086614E-1));
#70=DIRECTION('',(0.E0,0.E0,1.E0));
#71=DIRECTION('',(1.E0,0.E0,0.E0));
#72=AXIS2_PLACEMENT_3D('',#69,#70,#71);
#74=CARTESIAN_POINT('',(3.759842519685E0,1.377952755906E-1,3.543307086614E-1));
#75=DIRECTION('',(0.E0,0.E0,1.E0));
#76=DIRECTION('',(-1.E0,0.E0,0.E0));
#77=AXIS2_PLACEMENT_3D('',#74,#75,#76);
#79=CARTESIAN_POINT('',(1.377952755906E-1,3.759842519685E0,3.543307086614E-1));
#80=DIRECTION('',(0.E0,0.E0,1.E0));
#81=DIRECTION('',(1.E0,0.E0,0.E0));
#82=AXIS2_PLACEMENT_3D('',#79,#80,#81);
#84=CARTESIAN_POINT('',(1.377952755906E-1,3.759842519685E0,3.543307086614E-1));
#85=DIRECTION('',(0.E0,0.E0,1.E0));
#86=DIRECTION('',(-1.E0,0.E0,0.E0));
#87=AXIS2_PLACEMENT_3D('',#84,#85,#86);
#89=DIRECTION('',(1.E0,0.E0,0.E0));
#90=VECTOR('',#89,3.545790087747E0);
#91=CARTESIAN_POINT('',(7.874015748031E-2,7.874015748032E-2,3.543307086614E-1));
#92=LINE('',#91,#90);
#93=DIRECTION('',(0.E0,1.E0,0.E0));
#94=VECTOR('',#93,3.610429725517E0);
#95=CARTESIAN_POINT('',(3.858267716535E0,2.478379910187E-1,3.543307086614E-1));
#96=LINE('',#95,#94);
#97=DIRECTION('',(-1.E0,0.E0,0.E0));
#98=VECTOR('',#97,3.610429725517E0);
#99=CARTESIAN_POINT('',(3.858267716535E0,3.858267716535E0,3.543307086614E-1));
#100=LINE('',#99,#98);
#101=DIRECTION('',(0.E0,-1.E0,0.E0));
#102=VECTOR('',#101,3.545790087747E0);
#103=CARTESIAN_POINT('',(7.874015748031E-2,3.624530245228E0,3.543307086614E-1));
#104=LINE('',#103,#102);
#105=DIRECTION('',(0.E0,0.E0,-1.E0));
#106=VECTOR('',#105,3.543307086614E-1);
#107=CARTESIAN_POINT('',(3.828740157480E0,1.377952755906E-1,3.543307086614E-1));
#108=LINE('',#107,#106);
#109=DIRECTION('',(0.E0,0.E0,-1.E0));
#110=VECTOR('',#109,3.543307086614E-1);
#111=CARTESIAN_POINT('',(3.690944881890E0,1.377952755906E-1,3.543307086614E-1));
#112=LINE('',#111,#110);
#113=DIRECTION('',(0.E0,0.E0,-1.E0));
#114=VECTOR('',#113,3.543307086614E-1);
#115=CARTESIAN_POINT('',(2.066929133858E-1,3.759842519685E0,3.543307086614E-1));
#116=LINE('',#115,#114);
#117=DIRECTION('',(0.E0,0.E0,-1.E0));
#118=VECTOR('',#117,3.543307086614E-1);
#119=CARTESIAN_POINT('',(6.889763779528E-2,3.759842519685E0,3.543307086614E-1));
#120=LINE('',#119,#118);
#121=DIRECTION('',(0.E0,0.E0,-1.E0));
#122=VECTOR('',#121,7.874015748031E-3);
#123=CARTESIAN_POINT('',(7.874015748031E-2,7.874015748032E-2,
3.543307086614E-1));
#124=LINE('',#123,#122);
#125=DIRECTION('',(0.E0,0.E0,-1.E0));
#126=VECTOR('',#125,7.874015748031E-3);
#127=CARTESIAN_POINT('',(7.874015748031E-2,3.624530245228E0,3.543307086614E-1));
#128=LINE('',#127,#126);
#129=CARTESIAN_POINT('',(1.377952755906E-1,3.759842519685E0,3.464566929134E-1));
#130=DIRECTION('',(0.E0,0.E0,-1.E0));
#131=DIRECTION('',(7.453559924999E-1,6.666666666667E-1,0.E0));
#132=AXIS2_PLACEMENT_3D('',#129,#130,#131);
#134=CARTESIAN_POINT('',(1.377952755906E-1,3.759842519685E0,3.543307086614E-1));
#135=DIRECTION('',(0.E0,0.E0,1.E0));
#136=DIRECTION('',(-4.E-1,-9.165151389912E-1,0.E0));
#137=AXIS2_PLACEMENT_3D('',#134,#135,#136);
#139=DIRECTION('',(0.E0,0.E0,-1.E0));
#140=VECTOR('',#139,7.874015748032E-3);
#141=CARTESIAN_POINT('',(2.478379910187E-1,3.858267716535E0,3.543307086614E-1));
#142=LINE('',#141,#140);
#143=DIRECTION('',(1.E0,0.E0,0.E0));
#144=VECTOR('',#143,3.545790087747E0);
#145=CARTESIAN_POINT('',(7.874015748031E-2,7.874015748032E-2,
3.464566929134E-1));
#146=LINE('',#145,#144);
#147=DIRECTION('',(0.E0,-1.E0,0.E0));
#148=VECTOR('',#147,3.545790087747E0);
#149=CARTESIAN_POINT('',(7.874015748031E-2,3.624530245228E0,3.464566929134E-1));
#150=LINE('',#149,#148);
#151=DIRECTION('',(-1.E0,0.E0,0.E0));
#152=VECTOR('',#151,3.610429725517E0);
#153=CARTESIAN_POINT('',(3.858267716535E0,3.858267716535E0,3.464566929134E-1));
#154=LINE('',#153,#152);
#155=DIRECTION('',(0.E0,1.E0,0.E0));
#156=VECTOR('',#155,3.610429725517E0);
#157=CARTESIAN_POINT('',(3.858267716535E0,2.478379910187E-1,3.464566929134E-1));
#158=LINE('',#157,#156);
#159=DIRECTION('',(0.E0,0.E0,-1.E0));
#160=VECTOR('',#159,7.874015748031E-3);
#161=CARTESIAN_POINT('',(3.858267716535E0,3.858267716535E0,3.543307086614E-1));
#162=LINE('',#161,#160);
#163=DIRECTION('',(0.E0,0.E0,-1.E0));
#164=VECTOR('',#163,7.874015748031E-3);
#165=CARTESIAN_POINT('',(3.858267716535E0,2.478379910187E-1,3.543307086614E-1));
#166=LINE('',#165,#164);
#167=CARTESIAN_POINT('',(3.759842519685E0,1.377952755906E-1,3.464566929134E-1));
#168=DIRECTION('',(0.E0,0.E0,-1.E0));
#169=DIRECTION('',(-9.165151389912E-1,-4.E-1,0.E0));
#170=AXIS2_PLACEMENT_3D('',#167,#168,#169);
#172=CARTESIAN_POINT('',(3.759842519685E0,1.377952755906E-1,3.543307086614E-1));
#173=DIRECTION('',(0.E0,0.E0,1.E0));
#174=DIRECTION('',(6.666666666667E-1,7.453559924999E-1,0.E0));
#175=AXIS2_PLACEMENT_3D('',#172,#173,#174);
#177=DIRECTION('',(0.E0,0.E0,-1.E0));
#178=VECTOR('',#177,7.874015748032E-3);
#179=CARTESIAN_POINT('',(3.624530245228E0,7.874015748031E-2,3.543307086614E-1));
#180=LINE('',#179,#178);
#181=CARTESIAN_POINT('',(0.E0,0.E0,0.E0));
#182=CARTESIAN_POINT('',(3.937007874016E0,0.E0,0.E0));
#183=VERTEX_POINT('',#181);
#184=VERTEX_POINT('',#182);
#185=CARTESIAN_POINT('',(3.937007874016E0,3.937007874016E0,0.E0));
#186=VERTEX_POINT('',#185);
#187=CARTESIAN_POINT('',(0.E0,3.937007874016E0,0.E0));
#188=VERTEX_POINT('',#187);
#189=CARTESIAN_POINT('',(0.E0,0.E0,3.543307086614E-1));
#190=CARTESIAN_POINT('',(3.937007874016E0,0.E0,3.543307086614E-1));
#191=VERTEX_POINT('',#189);
#192=VERTEX_POINT('',#190);
#193=CARTESIAN_POINT('',(3.937007874016E0,3.937007874016E0,3.543307086614E-1));
#194=VERTEX_POINT('',#193);
#195=CARTESIAN_POINT('',(0.E0,3.937007874016E0,3.543307086614E-1));
#196=VERTEX_POINT('',#195);
#197=CARTESIAN_POINT('',(3.828740157480E0,1.377952755906E-1,0.E0));
#198=CARTESIAN_POINT('',(3.690944881890E0,1.377952755906E-1,0.E0));
#199=VERTEX_POINT('',#197);
#200=VERTEX_POINT('',#198);
#201=CARTESIAN_POINT('',(2.066929133858E-1,3.759842519685E0,0.E0));
#202=CARTESIAN_POINT('',(6.889763779528E-2,3.759842519685E0,0.E0));
#203=VERTEX_POINT('',#201);
#204=VERTEX_POINT('',#202);
#205=CARTESIAN_POINT('',(3.828740157480E0,1.377952755906E-1,3.543307086614E-1));
#206=CARTESIAN_POINT('',(3.690944881890E0,1.377952755906E-1,3.543307086614E-1));
#207=VERTEX_POINT('',#205);
#208=VERTEX_POINT('',#206);
#209=CARTESIAN_POINT('',(2.066929133858E-1,3.759842519685E0,3.543307086614E-1));
#210=CARTESIAN_POINT('',(6.889763779528E-2,3.759842519685E0,3.543307086614E-1));
#211=VERTEX_POINT('',#209);
#212=VERTEX_POINT('',#210);
#213=CARTESIAN_POINT('',(7.874015748031E-2,7.874015748032E-2,
3.464566929134E-1));
#214=CARTESIAN_POINT('',(3.624530245228E0,7.874015748031E-2,3.464566929134E-1));
#215=VERTEX_POINT('',#213);
#216=VERTEX_POINT('',#214);
#217=CARTESIAN_POINT('',(3.858267716535E0,2.478379910187E-1,3.464566929134E-1));
#218=CARTESIAN_POINT('',(3.858267716535E0,3.858267716535E0,3.464566929134E-1));
#219=VERTEX_POINT('',#217);
#220=VERTEX_POINT('',#218);
#221=CARTESIAN_POINT('',(2.478379910187E-1,3.858267716535E0,3.464566929134E-1));
#222=VERTEX_POINT('',#221);
#223=CARTESIAN_POINT('',(7.874015748031E-2,3.624530245228E0,3.464566929134E-1));
#224=VERTEX_POINT('',#223);
#225=CARTESIAN_POINT('',(7.874015748031E-2,7.874015748032E-2,
3.543307086614E-1));
#226=CARTESIAN_POINT('',(3.624530245228E0,7.874015748031E-2,3.543307086614E-1));
#227=VERTEX_POINT('',#225);
#228=VERTEX_POINT('',#226);
#229=CARTESIAN_POINT('',(3.858267716535E0,2.478379910187E-1,3.543307086614E-1));
#230=CARTESIAN_POINT('',(3.858267716535E0,3.858267716535E0,3.543307086614E-1));
#231=VERTEX_POINT('',#229);
#232=VERTEX_POINT('',#230);
#233=CARTESIAN_POINT('',(2.478379910187E-1,3.858267716535E0,3.543307086614E-1));
#234=VERTEX_POINT('',#233);
#235=CARTESIAN_POINT('',(7.874015748031E-2,3.624530245228E0,3.543307086614E-1));
#236=VERTEX_POINT('',#235);
#237=CARTESIAN_POINT('',(0.E0,0.E0,0.E0));
#238=DIRECTION('',(0.E0,0.E0,1.E0));
#239=DIRECTION('',(1.E0,0.E0,0.E0));
#240=AXIS2_PLACEMENT_3D('',#237,#238,#239);
#241=PLANE('',#240);
#243=ORIENTED_EDGE('',*,*,#242,.T.);
#245=ORIENTED_EDGE('',*,*,#244,.T.);
#247=ORIENTED_EDGE('',*,*,#246,.T.);
#249=ORIENTED_EDGE('',*,*,#248,.T.);
#250=EDGE_LOOP('',(#243,#245,#247,#249));
#251=FACE_OUTER_BOUND('',#250,.F.);
#253=ORIENTED_EDGE('',*,*,#252,.F.);
#255=ORIENTED_EDGE('',*,*,#254,.F.);
#256=EDGE_LOOP('',(#253,#255));
#257=FACE_BOUND('',#256,.F.);
#259=ORIENTED_EDGE('',*,*,#258,.F.);
#261=ORIENTED_EDGE('',*,*,#260,.F.);
#262=EDGE_LOOP('',(#259,#261));
#263=FACE_BOUND('',#262,.F.);
#264=ADVANCED_FACE('',(#251,#257,#263),#241,.F.);
#265=CARTESIAN_POINT('',(0.E0,0.E0,0.E0));
#266=DIRECTION('',(0.E0,-1.E0,0.E0));
#267=DIRECTION('',(1.E0,0.E0,0.E0));
#268=AXIS2_PLACEMENT_3D('',#265,#266,#267);
#269=PLANE('',#268);
#270=ORIENTED_EDGE('',*,*,#242,.F.);
#272=ORIENTED_EDGE('',*,*,#271,.T.);
#274=ORIENTED_EDGE('',*,*,#273,.T.);
#276=ORIENTED_EDGE('',*,*,#275,.F.);
#277=EDGE_LOOP('',(#270,#272,#274,#276));
#278=FACE_OUTER_BOUND('',#277,.F.);
#279=ADVANCED_FACE('',(#278),#269,.T.);
#280=CARTESIAN_POINT('',(0.E0,3.937007874016E0,0.E0));
#281=DIRECTION('',(-1.E0,0.E0,0.E0));
#282=DIRECTION('',(0.E0,-1.E0,0.E0));
#283=AXIS2_PLACEMENT_3D('',#280,#281,#282);
#284=PLANE('',#283);
#285=ORIENTED_EDGE('',*,*,#248,.F.);
#287=ORIENTED_EDGE('',*,*,#286,.T.);
#289=ORIENTED_EDGE('',*,*,#288,.T.);
#290=ORIENTED_EDGE('',*,*,#271,.F.);
#291=EDGE_LOOP('',(#285,#287,#289,#290));
#292=FACE_OUTER_BOUND('',#291,.F.);
#293=ADVANCED_FACE('',(#292),#284,.T.);
#294=CARTESIAN_POINT('',(3.937007874016E0,3.937007874016E0,0.E0));
#295=DIRECTION('',(0.E0,1.E0,0.E0));
#296=DIRECTION('',(-1.E0,0.E0,0.E0));
#297=AXIS2_PLACEMENT_3D('',#294,#295,#296);
#298=PLANE('',#297);
#299=ORIENTED_EDGE('',*,*,#246,.F.);
#301=ORIENTED_EDGE('',*,*,#300,.T.);
#303=ORIENTED_EDGE('',*,*,#302,.T.);
#304=ORIENTED_EDGE('',*,*,#286,.F.);
#305=EDGE_LOOP('',(#299,#301,#303,#304));
#306=FACE_OUTER_BOUND('',#305,.F.);
#307=ADVANCED_FACE('',(#306),#298,.T.);
#308=CARTESIAN_POINT('',(3.937007874016E0,0.E0,0.E0));
#309=DIRECTION('',(1.E0,0.E0,0.E0));
#310=DIRECTION('',(0.E0,1.E0,0.E0));
#311=AXIS2_PLACEMENT_3D('',#308,#309,#310);
#312=PLANE('',#311);
#313=ORIENTED_EDGE('',*,*,#244,.F.);
#314=ORIENTED_EDGE('',*,*,#275,.T.);
#316=ORIENTED_EDGE('',*,*,#315,.T.);
#317=ORIENTED_EDGE('',*,*,#300,.F.);
#318=EDGE_LOOP('',(#313,#314,#316,#317));
#319=FACE_OUTER_BOUND('',#318,.F.);
#320=ADVANCED_FACE('',(#319),#312,.T.);
#321=CARTESIAN_POINT('',(0.E0,0.E0,3.543307086614E-1));
#322=DIRECTION('',(0.E0,0.E0,1.E0));
#323=DIRECTION('',(1.E0,0.E0,0.E0));
#324=AXIS2_PLACEMENT_3D('',#321,#322,#323);
#325=PLANE('',#324);
#326=ORIENTED_EDGE('',*,*,#273,.F.);
#327=ORIENTED_EDGE('',*,*,#288,.F.);
#328=ORIENTED_EDGE('',*,*,#302,.F.);
#329=ORIENTED_EDGE('',*,*,#315,.F.);
#330=EDGE_LOOP('',(#326,#327,#328,#329));
#331=FACE_OUTER_BOUND('',#330,.F.);
#333=ORIENTED_EDGE('',*,*,#332,.T.);
#335=ORIENTED_EDGE('',*,*,#334,.T.);
#336=EDGE_LOOP('',(#333,#335));
#337=FACE_BOUND('',#336,.F.);
#339=ORIENTED_EDGE('',*,*,#338,.T.);
#341=ORIENTED_EDGE('',*,*,#340,.T.);
#342=EDGE_LOOP('',(#339,#341));
#343=FACE_BOUND('',#342,.F.);
#345=ORIENTED_EDGE('',*,*,#344,.T.);
#347=ORIENTED_EDGE('',*,*,#346,.F.);
#349=ORIENTED_EDGE('',*,*,#348,.T.);
#351=ORIENTED_EDGE('',*,*,#350,.T.);
#353=ORIENTED_EDGE('',*,*,#352,.F.);
#355=ORIENTED_EDGE('',*,*,#354,.T.);
#356=EDGE_LOOP('',(#345,#347,#349,#351,#353,#355));
#357=FACE_BOUND('',#356,.F.);
#358=ADVANCED_FACE('',(#331,#337,#343,#357),#325,.T.);
#359=CARTESIAN_POINT('',(3.759842519685E0,1.377952755906E-1,3.543307086614E-1));
#360=DIRECTION('',(0.E0,0.E0,1.E0));
#361=DIRECTION('',(1.E0,0.E0,0.E0));
#362=AXIS2_PLACEMENT_3D('',#359,#360,#361);
#363=CYLINDRICAL_SURFACE('',#362,6.889763779528E-2);
#364=ORIENTED_EDGE('',*,*,#252,.T.);
#366=ORIENTED_EDGE('',*,*,#365,.F.);
#367=ORIENTED_EDGE('',*,*,#332,.F.);
#369=ORIENTED_EDGE('',*,*,#368,.T.);
#370=EDGE_LOOP('',(#364,#366,#367,#369));
#371=FACE_OUTER_BOUND('',#370,.F.);
#372=ADVANCED_FACE('',(#371),#363,.F.);
#373=CARTESIAN_POINT('',(3.759842519685E0,1.377952755906E-1,3.543307086614E-1));
#374=DIRECTION('',(0.E0,0.E0,1.E0));
#375=DIRECTION('',(1.E0,0.E0,0.E0));
#376=AXIS2_PLACEMENT_3D('',#373,#374,#375);
#377=CYLINDRICAL_SURFACE('',#376,6.889763779528E-2);
#378=ORIENTED_EDGE('',*,*,#254,.T.);
#379=ORIENTED_EDGE('',*,*,#368,.F.);
#380=ORIENTED_EDGE('',*,*,#334,.F.);
#381=ORIENTED_EDGE('',*,*,#365,.T.);
#382=EDGE_LOOP('',(#378,#379,#380,#381));
#383=FACE_OUTER_BOUND('',#382,.F.);
#384=ADVANCED_FACE('',(#383),#377,.F.);
#385=CARTESIAN_POINT('',(1.377952755906E-1,3.759842519685E0,3.543307086614E-1));
#386=DIRECTION('',(0.E0,0.E0,1.E0));
#387=DIRECTION('',(1.E0,0.E0,0.E0));
#388=AXIS2_PLACEMENT_3D('',#385,#386,#387);
#389=CYLINDRICAL_SURFACE('',#388,6.889763779528E-2);
#390=ORIENTED_EDGE('',*,*,#258,.T.);
#392=ORIENTED_EDGE('',*,*,#391,.F.);
#393=ORIENTED_EDGE('',*,*,#338,.F.);
#395=ORIENTED_EDGE('',*,*,#394,.T.);
#396=EDGE_LOOP('',(#390,#392,#393,#395));
#397=FACE_OUTER_BOUND('',#396,.F.);
#398=ADVANCED_FACE('',(#397),#389,.F.);
#399=CARTESIAN_POINT('',(1.377952755906E-1,3.759842519685E0,3.543307086614E-1));
#400=DIRECTION('',(0.E0,0.E0,1.E0));
#401=DIRECTION('',(1.E0,0.E0,0.E0));
#402=AXIS2_PLACEMENT_3D('',#399,#400,#401);
#403=CYLINDRICAL_SURFACE('',#402,6.889763779528E-2);
#404=ORIENTED_EDGE('',*,*,#260,.T.);
#405=ORIENTED_EDGE('',*,*,#394,.F.);
#406=ORIENTED_EDGE('',*,*,#340,.F.);
#407=ORIENTED_EDGE('',*,*,#391,.T.);
#408=EDGE_LOOP('',(#404,#405,#406,#407));
#409=FACE_OUTER_BOUND('',#408,.F.);
#410=ADVANCED_FACE('',(#409),#403,.F.);
#411=CARTESIAN_POINT('',(7.874015748031E-2,7.874015748031E-2,
3.543307086614E-1));
#412=DIRECTION('',(0.E0,-1.E0,0.E0));
#413=DIRECTION('',(1.E0,0.E0,0.E0));
#414=AXIS2_PLACEMENT_3D('',#411,#412,#413);
#415=PLANE('',#414);
#416=ORIENTED_EDGE('',*,*,#344,.F.);
#418=ORIENTED_EDGE('',*,*,#417,.T.);
#420=ORIENTED_EDGE('',*,*,#419,.T.);
#422=ORIENTED_EDGE('',*,*,#421,.F.);
#423=EDGE_LOOP('',(#416,#418,#420,#422));
#424=FACE_OUTER_BOUND('',#423,.F.);
#425=ADVANCED_FACE('',(#424),#415,.F.);
#426=CARTESIAN_POINT('',(7.874015748031E-2,3.624530245228E0,3.543307086614E-1));
#427=DIRECTION('',(-1.E0,0.E0,0.E0));
#428=DIRECTION('',(0.E0,-1.E0,0.E0));
#429=AXIS2_PLACEMENT_3D('',#426,#427,#428);
#430=PLANE('',#429);
#431=ORIENTED_EDGE('',*,*,#354,.F.);
#433=ORIENTED_EDGE('',*,*,#432,.T.);
#435=ORIENTED_EDGE('',*,*,#434,.T.);
#436=ORIENTED_EDGE('',*,*,#417,.F.);
#437=EDGE_LOOP('',(#431,#433,#435,#436));
#438=FACE_OUTER_BOUND('',#437,.F.);
#439=ADVANCED_FACE('',(#438),#430,.F.);
#440=CARTESIAN_POINT('',(1.377952755906E-1,3.759842519685E0,3.543307086614E-1));
#441=DIRECTION('',(0.E0,0.E0,1.E0));
#442=DIRECTION('',(1.E0,0.E0,0.E0));
#443=AXIS2_PLACEMENT_3D('',#440,#441,#442);
#444=CYLINDRICAL_SURFACE('',#443,1.476377952756E-1);
#446=ORIENTED_EDGE('',*,*,#445,.T.);
#447=ORIENTED_EDGE('',*,*,#432,.F.);
#448=ORIENTED_EDGE('',*,*,#352,.T.);
#450=ORIENTED_EDGE('',*,*,#449,.T.);
#451=EDGE_LOOP('',(#446,#447,#448,#450));
#452=FACE_OUTER_BOUND('',#451,.F.);
#453=ADVANCED_FACE('',(#452),#444,.T.);
#454=CARTESIAN_POINT('',(0.E0,0.E0,3.464566929134E-1));
#455=DIRECTION('',(0.E0,0.E0,1.E0));
#456=DIRECTION('',(1.E0,0.E0,0.E0));
#457=AXIS2_PLACEMENT_3D('',#454,#455,#456);
#458=PLANE('',#457);
#459=ORIENTED_EDGE('',*,*,#419,.F.);
#460=ORIENTED_EDGE('',*,*,#434,.F.);
#461=ORIENTED_EDGE('',*,*,#445,.F.);
#463=ORIENTED_EDGE('',*,*,#462,.F.);
#465=ORIENTED_EDGE('',*,*,#464,.F.);
#467=ORIENTED_EDGE('',*,*,#466,.F.);
#468=EDGE_LOOP('',(#459,#460,#461,#463,#465,#467));
#469=FACE_OUTER_BOUND('',#468,.F.);
#470=ADVANCED_FACE('',(#469),#458,.T.);
#471=CARTESIAN_POINT('',(3.858267716535E0,3.858267716535E0,3.543307086614E-1));
#472=DIRECTION('',(0.E0,1.E0,0.E0));
#473=DIRECTION('',(-1.E0,0.E0,0.E0));
#474=AXIS2_PLACEMENT_3D('',#471,#472,#473);
#475=PLANE('',#474);
#476=ORIENTED_EDGE('',*,*,#350,.F.);
#478=ORIENTED_EDGE('',*,*,#477,.T.);
#479=ORIENTED_EDGE('',*,*,#462,.T.);
#480=ORIENTED_EDGE('',*,*,#449,.F.);
#481=EDGE_LOOP('',(#476,#478,#479,#480));
#482=FACE_OUTER_BOUND('',#481,.F.);
#483=ADVANCED_FACE('',(#482),#475,.F.);
#484=CARTESIAN_POINT('',(3.858267716535E0,2.478379910187E-1,3.543307086614E-1));
#485=DIRECTION('',(1.E0,0.E0,0.E0));
#486=DIRECTION('',(0.E0,1.E0,0.E0));
#487=AXIS2_PLACEMENT_3D('',#484,#485,#486);
#488=PLANE('',#487);
#489=ORIENTED_EDGE('',*,*,#348,.F.);
#491=ORIENTED_EDGE('',*,*,#490,.T.);
#492=ORIENTED_EDGE('',*,*,#464,.T.);
#493=ORIENTED_EDGE('',*,*,#477,.F.);
#494=EDGE_LOOP('',(#489,#491,#492,#493));
#495=FACE_OUTER_BOUND('',#494,.F.);
#496=ADVANCED_FACE('',(#495),#488,.F.);
#497=CARTESIAN_POINT('',(3.759842519685E0,1.377952755906E-1,3.543307086614E-1));
#498=DIRECTION('',(0.E0,0.E0,1.E0));
#499=DIRECTION('',(1.E0,0.E0,0.E0));
#500=AXIS2_PLACEMENT_3D('',#497,#498,#499);
#501=CYLINDRICAL_SURFACE('',#500,1.476377952756E-1);
#502=ORIENTED_EDGE('',*,*,#466,.T.);
#503=ORIENTED_EDGE('',*,*,#490,.F.);
#504=ORIENTED_EDGE('',*,*,#346,.T.);
#505=ORIENTED_EDGE('',*,*,#421,.T.);
#506=EDGE_LOOP('',(#502,#503,#504,#505));
#507=FACE_OUTER_BOUND('',#506,.F.);
#508=ADVANCED_FACE('',(#507),#501,.T.);
#509=CLOSED_SHELL('',(#264,#279,#293,#307,#320,#358,#372,#384,#398,#410,#425,
#439,#453,#470,#483,#496,#508));
#510=MANIFOLD_SOLID_BREP('',#509);
#511=DIMENSIONAL_EXPONENTS(1.E0,0.E0,0.E0,0.E0,0.E0,0.E0,0.E0);
#512=(LENGTH_UNIT()NAMED_UNIT(*)SI_UNIT(.MILLI.,.METRE.));
#513=LENGTH_MEASURE_WITH_UNIT(LENGTH_MEASURE(2.54E1),#512);
#514=(CONVERSION_BASED_UNIT('INCH',#513)LENGTH_UNIT()NAMED_UNIT(#511));
#515=DIMENSIONAL_EXPONENTS(0.E0,0.E0,0.E0,0.E0,0.E0,0.E0,0.E0);
#516=(NAMED_UNIT(*)PLANE_ANGLE_UNIT()SI_UNIT($,.RADIAN.));
#517=PLANE_ANGLE_MEASURE_WITH_UNIT(PLANE_ANGLE_MEASURE(1.745329251994E-2),#516);
#518=(CONVERSION_BASED_UNIT('DEGREE',#517)NAMED_UNIT(#515)PLANE_ANGLE_UNIT());
#519=(NAMED_UNIT(*)SI_UNIT($,.STERADIAN.)SOLID_ANGLE_UNIT());
#520=UNCERTAINTY_MEASURE_WITH_UNIT(LENGTH_MEASURE(5.578810110771E-4),#514,
'closure',
'Maximum model space distance between geometric entities at asserted connectivities');
#521=(GEOMETRIC_REPRESENTATION_CONTEXT(3)GLOBAL_UNCERTAINTY_ASSIGNED_CONTEXT((
#520))GLOBAL_UNIT_ASSIGNED_CONTEXT((#514,#518,#519))REPRESENTATION_CONTEXT
('ID1','3'));
#523=APPLICATION_CONTEXT(
'CONFIGURATION CONTROLLED 3D DESIGNS OF MECHANICAL PARTS AND ASSEMBLIES');
#524=APPLICATION_PROTOCOL_DEFINITION('international standard',
'config_control_design',1994,#523);
#525=DESIGN_CONTEXT('',#523,'design');
#526=MECHANICAL_CONTEXT('',#523,'mechanical');
#527=PRODUCT('158529_SW','158529_SW','NOT SPECIFIED',(#526));
#528=PRODUCT_DEFINITION_FORMATION_WITH_SPECIFIED_SOURCE('','LAST_VERSION',#527,
.MADE.);
#532=PRODUCT_CATEGORY('part','');
#533=PRODUCT_RELATED_PRODUCT_CATEGORY('detail','',(#527));
#534=PRODUCT_CATEGORY_RELATIONSHIP('','',#532,#533);
#535=SECURITY_CLASSIFICATION_LEVEL('unclassified');
#536=SECURITY_CLASSIFICATION('','',#535);
#537=CC_DESIGN_SECURITY_CLASSIFICATION(#536,(#528));
#538=APPROVAL_STATUS('approved');
#539=APPROVAL(#538,'');
#540=CC_DESIGN_APPROVAL(#539,(#536,#528,#529));
#541=CALENDAR_DATE(111,6,10);
#542=COORDINATED_UNIVERSAL_TIME_OFFSET(5,0,.BEHIND.);
#543=LOCAL_TIME(14,17,3.4E1,#542);
#544=DATE_AND_TIME(#541,#543);
#545=APPROVAL_DATE_TIME(#544,#539);
#546=DATE_TIME_ROLE('creation_date');
#547=CC_DESIGN_DATE_AND_TIME_ASSIGNMENT(#544,#546,(#529));
#548=DATE_TIME_ROLE('classification_date');
#549=CC_DESIGN_DATE_AND_TIME_ASSIGNMENT(#544,#548,(#536));
#550=PERSON('UNSPECIFIED','UNSPECIFIED',$,$,$,$);
#551=ORGANIZATION('UNSPECIFIED','UNSPECIFIED','UNSPECIFIED');
#552=PERSON_AND_ORGANIZATION(#550,#551);
#553=APPROVAL_ROLE('approver');
#554=APPROVAL_PERSON_ORGANIZATION(#552,#539,#553);
#555=PERSON_AND_ORGANIZATION_ROLE('creator');
#556=CC_DESIGN_PERSON_AND_ORGANIZATION_ASSIGNMENT(#552,#555,(#528,#529));
#557=PERSON_AND_ORGANIZATION_ROLE('design_supplier');
#558=CC_DESIGN_PERSON_AND_ORGANIZATION_ASSIGNMENT(#552,#557,(#528));
#559=PERSON_AND_ORGANIZATION_ROLE('classification_officer');
#560=CC_DESIGN_PERSON_AND_ORGANIZATION_ASSIGNMENT(#552,#559,(#536));
#561=PERSON_AND_ORGANIZATION_ROLE('design_owner');
#562=CC_DESIGN_PERSON_AND_ORGANIZATION_ASSIGNMENT(#552,#561,(#527));
#21=CIRCLE('',#20,6.889763779528E-2);
#26=CIRCLE('',#25,6.889763779528E-2);
#31=CIRCLE('',#30,6.889763779528E-2);
#36=CIRCLE('',#35,6.889763779528E-2);
#73=CIRCLE('',#72,6.889763779528E-2);
#78=CIRCLE('',#77,6.889763779528E-2);
#83=CIRCLE('',#82,6.889763779528E-2);
#88=CIRCLE('',#87,6.889763779528E-2);
#133=CIRCLE('',#132,1.476377952756E-1);
#138=CIRCLE('',#137,1.476377952756E-1);
#171=CIRCLE('',#170,1.476377952756E-1);
#176=CIRCLE('',#175,1.476377952756E-1);
#242=EDGE_CURVE('',#183,#184,#4,.T.);
#244=EDGE_CURVE('',#184,#186,#8,.T.);
#246=EDGE_CURVE('',#186,#188,#12,.T.);
#248=EDGE_CURVE('',#188,#183,#16,.T.);
#252=EDGE_CURVE('',#199,#200,#21,.T.);
#254=EDGE_CURVE('',#200,#199,#26,.T.);
#258=EDGE_CURVE('',#203,#204,#31,.T.);
#260=EDGE_CURVE('',#204,#203,#36,.T.);
#271=EDGE_CURVE('',#183,#191,#40,.T.);
#273=EDGE_CURVE('',#191,#192,#56,.T.);
#275=EDGE_CURVE('',#184,#192,#52,.T.);
#286=EDGE_CURVE('',#188,#196,#44,.T.);
#288=EDGE_CURVE('',#196,#191,#60,.T.);
#300=EDGE_CURVE('',#186,#194,#48,.T.);
#302=EDGE_CURVE('',#194,#196,#64,.T.);
#315=EDGE_CURVE('',#192,#194,#68,.T.);
#332=EDGE_CURVE('',#207,#208,#73,.T.);
#334=EDGE_CURVE('',#208,#207,#78,.T.);
#338=EDGE_CURVE('',#211,#212,#83,.T.);
#340=EDGE_CURVE('',#212,#211,#88,.T.);
#344=EDGE_CURVE('',#227,#228,#92,.T.);
#346=EDGE_CURVE('',#231,#228,#176,.T.);
#348=EDGE_CURVE('',#231,#232,#96,.T.);
#350=EDGE_CURVE('',#232,#234,#100,.T.);
#352=EDGE_CURVE('',#236,#234,#138,.T.);
#354=EDGE_CURVE('',#236,#227,#104,.T.);
#365=EDGE_CURVE('',#208,#200,#112,.T.);
#368=EDGE_CURVE('',#207,#199,#108,.T.);
#391=EDGE_CURVE('',#212,#204,#120,.T.);
#394=EDGE_CURVE('',#211,#203,#116,.T.);
#417=EDGE_CURVE('',#227,#215,#124,.T.);
#419=EDGE_CURVE('',#215,#216,#146,.T.);
#421=EDGE_CURVE('',#228,#216,#180,.T.);
#432=EDGE_CURVE('',#236,#224,#128,.T.);
#434=EDGE_CURVE('',#224,#215,#150,.T.);
#445=EDGE_CURVE('',#222,#224,#133,.T.);
#449=EDGE_CURVE('',#234,#222,#142,.T.);
#462=EDGE_CURVE('',#220,#222,#154,.T.);
#464=EDGE_CURVE('',#219,#220,#158,.T.);
#466=EDGE_CURVE('',#216,#219,#171,.T.);
#477=EDGE_CURVE('',#232,#220,#162,.T.);
#490=EDGE_CURVE('',#231,#219,#166,.T.);
#522=ADVANCED_BREP_SHAPE_REPRESENTATION('',(#510),#521);
#529=PRODUCT_DEFINITION('design','',#528,#525);
#530=PRODUCT_DEFINITION_SHAPE('','SHAPE FOR 158529_SW.',#529);
#531=SHAPE_DEFINITION_REPRESENTATION(#530,#522);
ENDSEC;
END-ISO-10303-21;
