ISO-10303-21;
HEADER;
FILE_DESCRIPTION((''),'2;1');
FILE_NAME('158512_SW','2011-10-06T',('banengservice'),('BANNER ENGINEERING'),
'PRO/ENGINEER BY PARAMETRIC TECHNOLOGY CORPORATION, 2009141',
'PRO/ENGINEER BY PARAMETRIC TECHNOLOGY CORPORATION, 2009141','');
FILE_SCHEMA(('CONFIG_CONTROL_DESIGN'));
ENDSEC;
DATA;
#1=CARTESIAN_POINT('',(0.E0,0.E0,0.E0));
#2=DIRECTION('',(0.E0,0.E0,1.E0));
#3=DIRECTION('',(0.E0,1.E0,0.E0));
#4=AXIS2_PLACEMENT_3D('',#1,#2,#3);
#6=DIRECTION('',(0.E0,0.E0,1.E0));
#7=VECTOR('',#6,1.732283464567E-1);
#8=CARTESIAN_POINT('',(0.E0,1.E0,0.E0));
#9=LINE('',#8,#7);
#10=CARTESIAN_POINT('',(0.E0,0.E0,0.E0));
#11=DIRECTION('',(0.E0,0.E0,-1.E0));
#12=DIRECTION('',(0.E0,1.E0,0.E0));
#13=AXIS2_PLACEMENT_3D('',#10,#11,#12);
#15=DIRECTION('',(0.E0,0.E0,1.E0));
#16=VECTOR('',#15,1.732283464567E-1);
#17=CARTESIAN_POINT('',(0.E0,-1.E0,0.E0));
#18=LINE('',#17,#16);
#19=DIRECTION('',(0.E0,-1.757906384837E-1,9.844275755085E-1));
#20=VECTOR('',#19,1.119800208923E-1);
#21=CARTESIAN_POINT('',(0.E0,1.E0,1.732283464567E-1));
#22=LINE('',#21,#20);
#23=CARTESIAN_POINT('',(0.E0,0.E0,1.732283464567E-1));
#24=DIRECTION('',(0.E0,0.E0,-1.E0));
#25=DIRECTION('',(0.E0,1.E0,0.E0));
#26=AXIS2_PLACEMENT_3D('',#23,#24,#25);
#28=DIRECTION('',(0.E0,1.757906384837E-1,9.844275755085E-1));
#29=VECTOR('',#28,1.119800208923E-1);
#30=CARTESIAN_POINT('',(0.E0,-1.E0,1.732283464567E-1));
#31=LINE('',#30,#29);
#32=CARTESIAN_POINT('',(0.E0,0.E0,1.732283464567E-1));
#33=DIRECTION('',(0.E0,0.E0,1.E0));
#34=DIRECTION('',(0.E0,1.E0,0.E0));
#35=AXIS2_PLACEMENT_3D('',#32,#33,#34);
#37=CARTESIAN_POINT('',(0.E0,0.E0,2.834645669291E-1));
#38=DIRECTION('',(0.E0,0.E0,-1.E0));
#39=DIRECTION('',(0.E0,1.E0,0.E0));
#40=AXIS2_PLACEMENT_3D('',#37,#38,#39);
#42=CARTESIAN_POINT('',(0.E0,0.E0,2.834645669291E-1));
#43=DIRECTION('',(0.E0,0.E0,1.E0));
#44=DIRECTION('',(0.E0,1.E0,0.E0));
#45=AXIS2_PLACEMENT_3D('',#42,#43,#44);
#47=CARTESIAN_POINT('',(0.E0,0.E0,2.834645669291E-1));
#48=DIRECTION('',(0.E0,0.E0,1.E0));
#49=DIRECTION('',(1.E0,0.E0,0.E0));
#50=AXIS2_PLACEMENT_3D('',#47,#48,#49);
#52=CARTESIAN_POINT('',(0.E0,0.E0,2.834645669291E-1));
#53=DIRECTION('',(0.E0,0.E0,1.E0));
#54=DIRECTION('',(-1.E0,0.E0,0.E0));
#55=AXIS2_PLACEMENT_3D('',#52,#53,#54);
#57=DIRECTION('',(0.E0,0.E0,-1.E0));
#58=VECTOR('',#57,9.842519685039E-3);
#59=CARTESIAN_POINT('',(9.606299212598E-1,0.E0,2.834645669291E-1));
#60=LINE('',#59,#58);
#61=DIRECTION('',(0.E0,0.E0,-1.E0));
#62=VECTOR('',#61,9.842519685039E-3);
#63=CARTESIAN_POINT('',(-9.606299212598E-1,0.E0,2.834645669291E-1));
#64=LINE('',#63,#62);
#65=CARTESIAN_POINT('',(0.E0,0.E0,2.736220472441E-1));
#66=DIRECTION('',(0.E0,0.E0,1.E0));
#67=DIRECTION('',(1.E0,0.E0,0.E0));
#68=AXIS2_PLACEMENT_3D('',#65,#66,#67);
#70=CARTESIAN_POINT('',(0.E0,0.E0,2.736220472441E-1));
#71=DIRECTION('',(0.E0,0.E0,1.E0));
#72=DIRECTION('',(-1.E0,0.E0,0.E0));
#73=AXIS2_PLACEMENT_3D('',#70,#71,#72);
#75=CARTESIAN_POINT('',(0.E0,1.E0,0.E0));
#76=CARTESIAN_POINT('',(0.E0,1.E0,1.732283464567E-1));
#77=VERTEX_POINT('',#75);
#78=VERTEX_POINT('',#76);
#79=CARTESIAN_POINT('',(0.E0,9.803149606299E-1,2.834645669291E-1));
#80=VERTEX_POINT('',#79);
#81=CARTESIAN_POINT('',(0.E0,-1.E0,0.E0));
#82=CARTESIAN_POINT('',(0.E0,-1.E0,1.732283464567E-1));
#83=VERTEX_POINT('',#81);
#84=VERTEX_POINT('',#82);
#85=CARTESIAN_POINT('',(0.E0,-9.803149606299E-1,2.834645669291E-1));
#86=VERTEX_POINT('',#85);
#87=CARTESIAN_POINT('',(9.606299212598E-1,0.E0,2.736220472441E-1));
#88=CARTESIAN_POINT('',(-9.606299212598E-1,0.E0,2.736220472441E-1));
#89=VERTEX_POINT('',#87);
#90=VERTEX_POINT('',#88);
#91=CARTESIAN_POINT('',(9.606299212598E-1,0.E0,2.834645669291E-1));
#92=CARTESIAN_POINT('',(-9.606299212598E-1,0.E0,2.834645669291E-1));
#93=VERTEX_POINT('',#91);
#94=VERTEX_POINT('',#92);
#95=CARTESIAN_POINT('',(0.E0,0.E0,-1.417322834646E-2));
#96=DIRECTION('',(0.E0,0.E0,1.E0));
#97=DIRECTION('',(0.E0,1.E0,0.E0));
#98=AXIS2_PLACEMENT_3D('',#95,#96,#97);
#99=CYLINDRICAL_SURFACE('',#98,1.E0);
#101=ORIENTED_EDGE('',*,*,#100,.T.);
#103=ORIENTED_EDGE('',*,*,#102,.T.);
#105=ORIENTED_EDGE('',*,*,#104,.F.);
#107=ORIENTED_EDGE('',*,*,#106,.F.);
#108=EDGE_LOOP('',(#101,#103,#105,#107));
#109=FACE_OUTER_BOUND('',#108,.F.);
#110=ADVANCED_FACE('',(#109),#99,.T.);
#111=CARTESIAN_POINT('',(0.E0,0.E0,-1.417322834646E-2));
#112=DIRECTION('',(0.E0,0.E0,1.E0));
#113=DIRECTION('',(0.E0,1.E0,0.E0));
#114=AXIS2_PLACEMENT_3D('',#111,#112,#113);
#115=CYLINDRICAL_SURFACE('',#114,1.E0);
#116=ORIENTED_EDGE('',*,*,#100,.F.);
#118=ORIENTED_EDGE('',*,*,#117,.T.);
#119=ORIENTED_EDGE('',*,*,#104,.T.);
#121=ORIENTED_EDGE('',*,*,#120,.F.);
#122=EDGE_LOOP('',(#116,#118,#119,#121));
#123=FACE_OUTER_BOUND('',#122,.F.);
#124=ADVANCED_FACE('',(#123),#115,.T.);
#125=CARTESIAN_POINT('',(0.E0,0.E0,0.E0));
#126=DIRECTION('',(0.E0,0.E0,1.E0));
#127=DIRECTION('',(0.E0,1.E0,0.E0));
#128=AXIS2_PLACEMENT_3D('',#125,#126,#127);
#129=PLANE('',#128);
#130=ORIENTED_EDGE('',*,*,#117,.F.);
#131=ORIENTED_EDGE('',*,*,#106,.T.);
#132=EDGE_LOOP('',(#130,#131));
#133=FACE_OUTER_BOUND('',#132,.F.);
#134=ADVANCED_FACE('',(#133),#129,.F.);
#135=CARTESIAN_POINT('',(0.E0,0.E0,2.283464566929E-1));
#136=DIRECTION('',(0.E0,0.E0,-1.E0));
#137=DIRECTION('',(0.E0,-1.E0,0.E0));
#138=AXIS2_PLACEMENT_3D('',#135,#136,#137);
#139=CONICAL_SURFACE('',#138,9.901574803150E-1,1.012467165540E1);
#141=ORIENTED_EDGE('',*,*,#140,.F.);
#142=ORIENTED_EDGE('',*,*,#120,.T.);
#144=ORIENTED_EDGE('',*,*,#143,.T.);
#146=ORIENTED_EDGE('',*,*,#145,.F.);
#147=EDGE_LOOP('',(#141,#142,#144,#146));
#148=FACE_OUTER_BOUND('',#147,.F.);
#149=ADVANCED_FACE('',(#148),#139,.T.);
#150=CARTESIAN_POINT('',(0.E0,0.E0,2.283464566929E-1));
#151=DIRECTION('',(0.E0,0.E0,-1.E0));
#152=DIRECTION('',(0.E0,-1.E0,0.E0));
#153=AXIS2_PLACEMENT_3D('',#150,#151,#152);
#154=CONICAL_SURFACE('',#153,9.901574803150E-1,1.012467165540E1);
#155=ORIENTED_EDGE('',*,*,#140,.T.);
#157=ORIENTED_EDGE('',*,*,#156,.T.);
#158=ORIENTED_EDGE('',*,*,#143,.F.);
#159=ORIENTED_EDGE('',*,*,#102,.F.);
#160=EDGE_LOOP('',(#155,#157,#158,#159));
#161=FACE_OUTER_BOUND('',#160,.F.);
#162=ADVANCED_FACE('',(#161),#154,.T.);
#163=CARTESIAN_POINT('',(0.E0,0.E0,2.834645669291E-1));
#164=DIRECTION('',(0.E0,0.E0,1.E0));
#165=DIRECTION('',(0.E0,1.E0,0.E0));
#166=AXIS2_PLACEMENT_3D('',#163,#164,#165);
#167=PLANE('',#166);
#168=ORIENTED_EDGE('',*,*,#145,.T.);
#169=ORIENTED_EDGE('',*,*,#156,.F.);
#170=EDGE_LOOP('',(#168,#169));
#171=FACE_OUTER_BOUND('',#170,.F.);
#173=ORIENTED_EDGE('',*,*,#172,.T.);
#175=ORIENTED_EDGE('',*,*,#174,.T.);
#176=EDGE_LOOP('',(#173,#175));
#177=FACE_BOUND('',#176,.F.);
#178=ADVANCED_FACE('',(#171,#177),#167,.T.);
#179=CARTESIAN_POINT('',(0.E0,0.E0,2.834645669291E-1));
#180=DIRECTION('',(0.E0,0.E0,1.E0));
#181=DIRECTION('',(1.E0,0.E0,0.E0));
#182=AXIS2_PLACEMENT_3D('',#179,#180,#181);
#183=CYLINDRICAL_SURFACE('',#182,9.606299212598E-1);
#184=ORIENTED_EDGE('',*,*,#172,.F.);
#186=ORIENTED_EDGE('',*,*,#185,.T.);
#188=ORIENTED_EDGE('',*,*,#187,.T.);
#190=ORIENTED_EDGE('',*,*,#189,.F.);
#191=EDGE_LOOP('',(#184,#186,#188,#190));
#192=FACE_OUTER_BOUND('',#191,.F.);
#193=ADVANCED_FACE('',(#192),#183,.F.);
#194=CARTESIAN_POINT('',(0.E0,0.E0,2.834645669291E-1));
#195=DIRECTION('',(0.E0,0.E0,1.E0));
#196=DIRECTION('',(1.E0,0.E0,0.E0));
#197=AXIS2_PLACEMENT_3D('',#194,#195,#196);
#198=CYLINDRICAL_SURFACE('',#197,9.606299212598E-1);
#199=ORIENTED_EDGE('',*,*,#174,.F.);
#200=ORIENTED_EDGE('',*,*,#189,.T.);
#202=ORIENTED_EDGE('',*,*,#201,.T.);
#203=ORIENTED_EDGE('',*,*,#185,.F.);
#204=EDGE_LOOP('',(#199,#200,#202,#203));
#205=FACE_OUTER_BOUND('',#204,.F.);
#206=ADVANCED_FACE('',(#205),#198,.F.);
#207=CARTESIAN_POINT('',(0.E0,0.E0,2.736220472441E-1));
#208=DIRECTION('',(0.E0,0.E0,1.E0));
#209=DIRECTION('',(1.E0,0.E0,0.E0));
#210=AXIS2_PLACEMENT_3D('',#207,#208,#209);
#211=PLANE('',#210);
#212=ORIENTED_EDGE('',*,*,#187,.F.);
#213=ORIENTED_EDGE('',*,*,#201,.F.);
#214=EDGE_LOOP('',(#212,#213));
#215=FACE_OUTER_BOUND('',#214,.F.);
#216=ADVANCED_FACE('',(#215),#211,.T.);
#217=CLOSED_SHELL('',(#110,#124,#134,#149,#162,#178,#193,#206,#216));
#218=MANIFOLD_SOLID_BREP('',#217);
#219=DIMENSIONAL_EXPONENTS(1.E0,0.E0,0.E0,0.E0,0.E0,0.E0,0.E0);
#220=(LENGTH_UNIT()NAMED_UNIT(*)SI_UNIT(.MILLI.,.METRE.));
#221=LENGTH_MEASURE_WITH_UNIT(LENGTH_MEASURE(2.54E1),#220);
#222=(CONVERSION_BASED_UNIT('INCH',#221)LENGTH_UNIT()NAMED_UNIT(#219));
#223=DIMENSIONAL_EXPONENTS(0.E0,0.E0,0.E0,0.E0,0.E0,0.E0,0.E0);
#224=(NAMED_UNIT(*)PLANE_ANGLE_UNIT()SI_UNIT($,.RADIAN.));
#225=PLANE_ANGLE_MEASURE_WITH_UNIT(PLANE_ANGLE_MEASURE(1.745329251994E-2),#224);
#226=(CONVERSION_BASED_UNIT('DEGREE',#225)NAMED_UNIT(#223)PLANE_ANGLE_UNIT());
#227=(NAMED_UNIT(*)SI_UNIT($,.STERADIAN.)SOLID_ANGLE_UNIT());
#228=UNCERTAINTY_MEASURE_WITH_UNIT(LENGTH_MEASURE(2.842904631210E-4),#222,
'closure',
'Maximum model space distance between geometric entities at asserted connectivities');
#229=(GEOMETRIC_REPRESENTATION_CONTEXT(3)GLOBAL_UNCERTAINTY_ASSIGNED_CONTEXT((
#228))GLOBAL_UNIT_ASSIGNED_CONTEXT((#222,#226,#227))REPRESENTATION_CONTEXT
('ID1','3'));
#231=APPLICATION_CONTEXT(
'CONFIGURATION CONTROLLED 3D DESIGNS OF MECHANICAL PARTS AND ASSEMBLIES');
#232=APPLICATION_PROTOCOL_DEFINITION('international standard',
'config_control_design',1994,#231);
#233=DESIGN_CONTEXT('',#231,'design');
#234=MECHANICAL_CONTEXT('',#231,'mechanical');
#235=PRODUCT('158512_SW','158512_SW','NOT SPECIFIED',(#234));
#236=PRODUCT_DEFINITION_FORMATION_WITH_SPECIFIED_SOURCE('','LAST_VERSION',#235,
.MADE.);
#240=PRODUCT_CATEGORY('part','');
#241=PRODUCT_RELATED_PRODUCT_CATEGORY('detail','',(#235));
#242=PRODUCT_CATEGORY_RELATIONSHIP('','',#240,#241);
#243=SECURITY_CLASSIFICATION_LEVEL('unclassified');
#244=SECURITY_CLASSIFICATION('','',#243);
#245=CC_DESIGN_SECURITY_CLASSIFICATION(#244,(#236));
#246=APPROVAL_STATUS('approved');
#247=APPROVAL(#246,'');
#248=CC_DESIGN_APPROVAL(#247,(#244,#236,#237));
#249=CALENDAR_DATE(111,6,10);
#250=COORDINATED_UNIVERSAL_TIME_OFFSET(5,0,.BEHIND.);
#251=LOCAL_TIME(13,6,7.E0,#250);
#252=DATE_AND_TIME(#249,#251);
#253=APPROVAL_DATE_TIME(#252,#247);
#254=DATE_TIME_ROLE('creation_date');
#255=CC_DESIGN_DATE_AND_TIME_ASSIGNMENT(#252,#254,(#237));
#256=DATE_TIME_ROLE('classification_date');
#257=CC_DESIGN_DATE_AND_TIME_ASSIGNMENT(#252,#256,(#244));
#258=PERSON('UNSPECIFIED','UNSPECIFIED',$,$,$,$);
#259=ORGANIZATION('UNSPECIFIED','UNSPECIFIED','UNSPECIFIED');
#260=PERSON_AND_ORGANIZATION(#258,#259);
#261=APPROVAL_ROLE('approver');
#262=APPROVAL_PERSON_ORGANIZATION(#260,#247,#261);
#263=PERSON_AND_ORGANIZATION_ROLE('creator');
#264=CC_DESIGN_PERSON_AND_ORGANIZATION_ASSIGNMENT(#260,#263,(#236,#237));
#265=PERSON_AND_ORGANIZATION_ROLE('design_supplier');
#266=CC_DESIGN_PERSON_AND_ORGANIZATION_ASSIGNMENT(#260,#265,(#236));
#267=PERSON_AND_ORGANIZATION_ROLE('classification_officer');
#268=CC_DESIGN_PERSON_AND_ORGANIZATION_ASSIGNMENT(#260,#267,(#244));
#269=PERSON_AND_ORGANIZATION_ROLE('design_owner');
#270=CC_DESIGN_PERSON_AND_ORGANIZATION_ASSIGNMENT(#260,#269,(#235));
#5=CIRCLE('',#4,1.E0);
#14=CIRCLE('',#13,1.E0);
#27=CIRCLE('',#26,1.E0);
#36=CIRCLE('',#35,1.E0);
#41=CIRCLE('',#40,9.803149606299E-1);
#46=CIRCLE('',#45,9.803149606299E-1);
#51=CIRCLE('',#50,9.606299212598E-1);
#56=CIRCLE('',#55,9.606299212598E-1);
#69=CIRCLE('',#68,9.606299212598E-1);
#74=CIRCLE('',#73,9.606299212598E-1);
#100=EDGE_CURVE('',#77,#78,#9,.T.);
#102=EDGE_CURVE('',#78,#84,#36,.T.);
#104=EDGE_CURVE('',#83,#84,#18,.T.);
#106=EDGE_CURVE('',#77,#83,#5,.T.);
#117=EDGE_CURVE('',#77,#83,#14,.T.);
#120=EDGE_CURVE('',#78,#84,#27,.T.);
#140=EDGE_CURVE('',#78,#80,#22,.T.);
#143=EDGE_CURVE('',#84,#86,#31,.T.);
#145=EDGE_CURVE('',#80,#86,#41,.T.);
#156=EDGE_CURVE('',#80,#86,#46,.T.);
#172=EDGE_CURVE('',#93,#94,#51,.T.);
#174=EDGE_CURVE('',#94,#93,#56,.T.);
#185=EDGE_CURVE('',#93,#89,#60,.T.);
#187=EDGE_CURVE('',#89,#90,#69,.T.);
#189=EDGE_CURVE('',#94,#90,#64,.T.);
#201=EDGE_CURVE('',#90,#89,#74,.T.);
#230=ADVANCED_BREP_SHAPE_REPRESENTATION('',(#218),#229);
#237=PRODUCT_DEFINITION('design','',#236,#233);
#238=PRODUCT_DEFINITION_SHAPE('','SHAPE FOR 158512_SW.',#237);
#239=SHAPE_DEFINITION_REPRESENTATION(#238,#230);
ENDSEC;
END-ISO-10303-21;
