 PTC IGES file: 158512.igs                                              S      1
1H,,1H;,9H158512_SW,10H158512.igs,                                      G      1
49HPro/ENGINEER by Parametric Technology Corporation,7H2009141,32,38,7, G      2
38,15,9H158512_SW,1.,1,4HINCH,32768,0.5,15H20111006.130607,0.00028429,  G      3
2.84302,13Hbanengservice,7HUnknown,10,0,15H20111006.130607;             G      4
     314       1       1       1       0       0       0       001000200D      1
     314       0       4       1       0                   COLOR       1D      2
     314       2       1       1       0       0       0       001000200D      3
     314       0       1       1       0                   COLOR       2D      4
     314       3       1       1       0       0       0       001000200D      5
     314       0       1       1       0                   COLOR       3D      6
     314       4       1       1       0       0       0       001000200D      7
     314       0       1       1       0                   COLOR       4D      8
     314       5       1       1       0       0       0       001000200D      9
     314       0       8       1       0                   COLOR       5D     10
     314       6       1       1       0       0       0       001000200D     11
     314       0       8       1       0                   COLOR       6D     12
     314       7       1       1       0       0       0       001000200D     13
     314       0       5       1       0                   COLOR       7D     14
     314       8       1       1       0       0       0       001000200D     15
     314       0       8       1       0                   COLOR       8D     16
     124       9       1       1       0       0       0       001000000D     17
     124       0       0       1       0                   XFORM       1D     18
     100      10       1       1       0       0      17       001010000D     19
     100       0       0       1       0                     ARC       1D     20
     110      11       1       1       0       0       0       001010000D     21
     110       0       0       1       0                    LINE       1D     22
     124      12       1       1       0       0       0       001000000D     23
     124       0       0       1       0                   XFORM       2D     24
     100      13       1       1       0       0      23       001010000D     25
     100       0       0       1       0                     ARC       2D     26
     110      14       1       1       0       0       0       001010000D     27
     110       0       0       1       0                    LINE       2D     28
     110      15       1       1       0       0       0       001010000D     29
     110       0       0       2       0                    LINE       3D     30
     124      17       1       1       0       0       0       001000000D     31
     124       0       0       2       0                   XFORM       3D     32
     100      19       1       1       0       0      31       001010000D     33
     100       0       0       1       0                     ARC       3D     34
     110      20       1       1       0       0       0       001010000D     35
     110       0       0       2       0                    LINE       4D     36
     124      22       1       1       0       0       0       001000000D     37
     124       0       0       2       0                   XFORM       4D     38
     100      24       1       1       0       0      37       001010000D     39
     100       0       0       1       0                     ARC       4D     40
     124      25       1       1       0       0       0       001000000D     41
     124       0       0       2       0                   XFORM       5D     42
     100      27       1       1       0       0      41       001010000D     43
     100       0       0       1       0                     ARC       5D     44
     124      28       1       1       0       0       0       001000000D     45
     124       0       0       2       0                   XFORM       6D     46
     100      30       1       1       0       0      45       001010000D     47
     100       0       0       1       0                     ARC       6D     48
     124      31       1       1       0       0       0       001000000D     49
     124       0       0       2       0                   XFORM       7D     50
     100      33       1       1       0       0      49       001010000D     51
     100       0       0       1       0                     ARC       7D     52
     124      34       1       1       0       0       0       001000000D     53
     124       0       0       2       0                   XFORM       8D     54
     100      36       1       1       0       0      53       001010000D     55
     100       0       0       1       0                     ARC       8D     56
     110      37       1       1       0       0       0       001010000D     57
     110       0       0       2       0                    LINE       5D     58
     110      39       1       1       0       0       0       001010000D     59
     110       0       0       2       0                    LINE       6D     60
     124      41       1       1       0       0       0       001000000D     61
     124       0       0       2       0                   XFORM       9D     62
     100      43       1       1       0       0      61       001010000D     63
     100       0       0       1       0                     ARC       9D     64
     124      44       1       1       0       0       0       001000000D     65
     124       0       0       2       0                   XFORM      10D     66
     100      46       1       1       0       0      65       001010000D     67
     100       0       0       1       0                     ARC      10D     68
     502      47       1       1       0       0       0       001010000D     69
     502       0       0       6       1                  VERTEX       1D     70
     504      53       1       1       0       0       0       000010001D     71
     504       0       0       4       1                    EDGE       1D     72
     110      57       1       1       0       0       0       001010000D     73
     110       0       0       1       0                    LINE       7D     74
     110      58       1       1       0       0       0       001010000D     75
     110       0       0       1       0                    LINE       8D     76
     120      59       1       1       0       0       0       001010000D     77
     120       0       0       1       0                    SREV       1D     78
     508      60       1       1       0       0       0       001010000D     79
     508       0       0       1       1                EDGELOOP       1D     80
     510      61       1       1       0       0       0       000010000D     81
     510       0       0       1       1                    FACE       1D     82
     110      62       1       1       0       0       0       001010000D     83
     110       0       0       1       0                    LINE       9D     84
     110      63       1       1       0       0       0       001010000D     85
     110       0       0       1       0                    LINE      10D     86
     120      64       1       1       0       0       0       001010000D     87
     120       0       0       1       0                    SREV       2D     88
     508      65       1       1       0       0       0       001010000D     89
     508       0       0       1       1                EDGELOOP       2D     90
     510      66       1       1       0       0       0       000010000D     91
     510       0       0       1       1                    FACE       2D     92
     128      67       1       1       0       0       0       001010000D     93
     128       0       0       6       0                  SPLSRF       1D     94
     508      73       1       1       0       0       0       001010000D     95
     508       0       0       1       1                EDGELOOP       3D     96
     510      74       1       1       0       0       0       000010000D     97
     510       0       0       1       1                    FACE       3D     98
     110      75       1       1       0       0       0       001010000D     99
     110       0       0       1       0                    LINE      11D    100
     110      76       1       1       0       0       0       001010000D    101
     110       0       0       2       0                    LINE      12D    102
     120      78       1       1       0       0       0       001010000D    103
     120       0       0       1       0                    SREV       3D    104
     508      79       1       1       0       0       0       001010000D    105
     508       0       0       1       1                EDGELOOP       4D    106
     510      80       1       1       0       0       0       000010000D    107
     510       0       0       1       1                    FACE       4D    108
     110      81       1       1       0       0       0       001010000D    109
     110       0       0       1       0                    LINE      13D    110
     110      82       1       1       0       0       0       001010000D    111
     110       0       0       2       0                    LINE      14D    112
     120      84       1       1       0       0       0       001010000D    113
     120       0       0       1       0                    SREV       4D    114
     508      85       1       1       0       0       0       001010000D    115
     508       0       0       1       1                EDGELOOP       5D    116
     510      86       1       1       0       0       0       000010000D    117
     510       0       0       1       1                    FACE       5D    118
     128      87       1       1       0       0       0       001010000D    119
     128       0       0       9       0                  SPLSRF       2D    120
     508      96       1       1       0       0       0       001010000D    121
     508       0       0       1       1                EDGELOOP       6D    122
     508      97       1       1       0       0       0       001010000D    123
     508       0       0       1       1                EDGELOOP       7D    124
     510      98       1       1       0       0       0       000010000D    125
     510       0       0       1       1                    FACE       6D    126
     110      99       1       1       0       0       0       001010000D    127
     110       0       0       1       0                    LINE      15D    128
     110     100       1       1       0       0       0       001010000D    129
     110       0       0       2       0                    LINE      16D    130
     120     102       1       1       0       0       0       001010000D    131
     120       0       0       1       0                    SREV       5D    132
     508     103       1       1       0       0       0       001010000D    133
     508       0       0       1       1                EDGELOOP       8D    134
     510     104       1       1       0       0       0       000010000D    135
     510       0       0       1       1                    FACE       7D    136
     110     105       1       1       0       0       0       001010000D    137
     110       0       0       1       0                    LINE      17D    138
     110     106       1       1       0       0       0       001010000D    139
     110       0       0       2       0                    LINE      18D    140
     120     108       1       1       0       0       0       001010000D    141
     120       0       0       1       0                    SREV       6D    142
     508     109       1       1       0       0       0       001010000D    143
     508       0       0       1       1                EDGELOOP       9D    144
     510     110       1       1       0       0       0       000010000D    145
     510       0       0       1       1                    FACE       8D    146
     128     111       1       1       0       0       0       001010000D    147
     128       0       8       9       0                  SPLSRF       3D    148
     508     120       1       1       0       0       0       001010000D    149
     508       0       0       1       1                EDGELOOP      10D    150
     510     121       1       1       0       0       0       000010000D    151
     510       0       8       1       1                    FACE       9D    152
     514     122       1       1       0       0       0       000010000D    153
     514       0       0       1       1                   SHELL       1D    154
     186     123       1       1       0       0       0       000000000D    155
     186       0       0       1       0                    MSBR       1D    156
314,1.1D0,1.2D0,1D2;                                                   1P      1
314,1.1D1,1.1D1,1.1D1;                                                 3P      2
314,3.92D1,1.2D0,1.2D0;                                                5P      3
314,4.1D1,0D0,2.2D1;                                                   7P      4
314,8.784D1,9.49D1,1D2;                                                9P      5
314,9.6D1,9.6D1,9.6D1;                                                11P      6
314,9.8D1,6.27D1,0D0;                                                 13P      7
314,1D2,1D2,9.49D1;                                                   15P      8
124,0D0,-1D0,0D0,0D0,1D0,0D0,0D0,0D0,0D0,0D0,1D0,0D0;                 17P      9
100,0D0,0D0,0D0,1D0,0D0,-1D0,0D0;                                     19P     10
110,0D0,1D0,0D0,0D0,1D0,1.732283464567D-1;                            21P     11
124,0D0,1D0,0D0,0D0,1D0,0D0,0D0,0D0,0D0,0D0,-1D0,0D0;                 23P     12
100,0D0,0D0,0D0,1D0,0D0,-1D0,0D0;                                     25P     13
110,0D0,-1D0,0D0,0D0,-1D0,1.732283464567D-1;                          27P     14
110,0D0,1D0,1.732283464567D-1,0D0,9.803149606299D-1,                  29P     15
2.834645669291D-1;                                                    29P     16
124,0D0,1D0,0D0,0D0,1D0,0D0,0D0,0D0,0D0,0D0,-1D0,                     31P     17
1.732283464567D-1;                                                    31P     18
100,0D0,0D0,0D0,1D0,0D0,-1D0,0D0;                                     33P     19
110,0D0,-1D0,1.732283464567D-1,0D0,-9.803149606299D-1,                35P     20
2.834645669291D-1;                                                    35P     21
124,0D0,-1D0,0D0,0D0,1D0,0D0,0D0,0D0,0D0,0D0,1D0,                     37P     22
1.732283464567D-1;                                                    37P     23
100,0D0,0D0,0D0,1D0,0D0,-1D0,0D0;                                     39P     24
124,0D0,1D0,0D0,0D0,1D0,0D0,0D0,0D0,0D0,0D0,-1D0,                     41P     25
2.834645669291D-1;                                                    41P     26
100,0D0,0D0,0D0,9.803149606299D-1,0D0,-9.803149606299D-1,0D0;         43P     27
124,0D0,-1D0,0D0,0D0,1D0,0D0,0D0,0D0,0D0,0D0,1D0,                     45P     28
2.834645669291D-1;                                                    45P     29
100,0D0,0D0,0D0,9.803149606299D-1,0D0,-9.803149606299D-1,0D0;         47P     30
124,1D0,0D0,0D0,0D0,0D0,1D0,0D0,0D0,0D0,0D0,1D0,                      49P     31
2.834645669291D-1;                                                    49P     32
100,0D0,0D0,0D0,9.606299212598D-1,0D0,-9.606299212598D-1,0D0;         51P     33
124,-1D0,0D0,0D0,0D0,0D0,-1D0,0D0,0D0,0D0,0D0,1D0,                    53P     34
2.834645669291D-1;                                                    53P     35
100,0D0,0D0,0D0,9.606299212598D-1,0D0,-9.606299212598D-1,0D0;         55P     36
110,9.606299212598D-1,0D0,2.834645669291D-1,9.606299212598D-1,        57P     37
0D0,2.736220472441D-1;                                                57P     38
110,-9.606299212598D-1,0D0,2.834645669291D-1,-9.606299212598D-1,      59P     39
0D0,2.736220472441D-1;                                                59P     40
124,1D0,0D0,0D0,0D0,0D0,1D0,0D0,0D0,0D0,0D0,1D0,                      61P     41
2.736220472441D-1;                                                    61P     42
100,0D0,0D0,0D0,9.606299212598D-1,0D0,-9.606299212598D-1,0D0;         63P     43
124,-1D0,0D0,0D0,0D0,0D0,-1D0,0D0,0D0,0D0,0D0,1D0,                    65P     44
2.736220472441D-1;                                                    65P     45
100,0D0,0D0,0D0,9.606299212598D-1,0D0,-9.606299212598D-1,0D0;         67P     46
502,10,0D0,1D0,0D0,0D0,1D0,1.732283464567D-1,0D0,                     69P     47
9.803149606299D-1,2.834645669291D-1,0D0,-1D0,0D0,0D0,-1D0,            69P     48
1.732283464567D-1,0D0,-9.803149606299D-1,2.834645669291D-1,           69P     49
9.606299212598D-1,0D0,2.736220472441D-1,-9.606299212598D-1,0D0,       69P     50
2.736220472441D-1,9.606299212598D-1,0D0,2.834645669291D-1,            69P     51
-9.606299212598D-1,0D0,2.834645669291D-1;                             69P     52
504,16,21,69,1,69,2,29,69,2,69,3,27,69,4,69,5,35,69,5,69,6,19,        71P     53
69,1,69,4,39,69,2,69,5,47,69,3,69,6,25,69,1,69,4,33,69,2,69,5,        71P     54
43,69,3,69,6,63,69,7,69,8,67,69,8,69,7,51,69,9,69,10,55,69,10,        71P     55
69,9,57,69,9,69,7,59,69,10,69,8;                                      71P     56
110,0D0,0D0,-1.417322834646D-2,0D0,0D0,9.858267716535D-1;             73P     57
110,0D0,1D0,-3.464566929134D-3,0D0,1D0,1.766929133858D-1;             75P     58
120,73,75,-6.283185307180D-2,3.204424506662D0;                        77P     59
508,4,0,71,1,1,0,0,71,6,1,0,0,71,3,0,0,0,71,5,0,0;                    79P     60
510,77,1,0,79;                                                        81P     61
110,0D0,0D0,-1.417322834646D-2,0D0,0D0,9.858267716535D-1;             83P     62
110,0D0,1D0,-3.464566929134D-3,0D0,1D0,1.766929133858D-1;             85P     63
120,83,85,-3.204424506662D0,6.283185307180D-2;                        87P     64
508,4,0,71,1,0,0,0,71,8,1,0,0,71,3,1,0,0,71,9,0,0;                    89P     65
510,87,1,0,89;                                                        91P     66
128,1,1,1,1,0,0,1,0,0,-1.04D0,-1.04D0,1.04D0,1.04D0,                  93P     67
-1.040716660206D0,-1.040716660206D0,1.040716660206D0,                 93P     68
1.040716660206D0,1D0,1D0,1D0,1D0,1.040716660206D0,-1.04D0,0D0,        93P     69
1.040716660206D0,1.04D0,0D0,-1.040716660206D0,-1.04D0,0D0,            93P     70
-1.040716660206D0,1.04D0,0D0,-1.04D0,1.04D0,-1.040716660206D0,        93P     71
1.040716660206D0;                                                     93P     72
508,2,0,71,8,0,0,0,71,5,1,0;                                          95P     73
510,93,1,0,95;                                                        97P     74
110,0D0,0D0,5.773228346457D0,0D0,0D0,6.773228346457D0;                99P     75
110,0D0,1.000599731214D0,1.698698516607D-1,0D0,                      101P     76
9.797152294164D-1,2.868230617251D-1;                                 101P     77
120,99,101,-3.204424506662D0,6.283185307180D-2;                      103P     78
508,4,0,71,2,0,0,0,71,9,1,0,0,71,4,1,0,0,71,10,0,0;                  105P     79
510,103,1,0,105;                                                     107P     80
110,0D0,0D0,5.773228346457D0,0D0,0D0,6.773228346457D0;               109P     81
110,0D0,1.000599731214D0,1.698698516607D-1,0D0,                      111P     82
9.797152294164D-1,2.868230617251D-1;                                 111P     83
120,109,111,-6.283185307180D-2,3.204424506662D0;                     113P     84
508,4,0,71,2,1,0,0,71,7,1,0,0,71,4,0,0,0,71,6,0,0;                   115P     85
510,113,1,0,115;                                                     117P     86
128,1,1,1,1,0,0,1,0,0,-1.019527559055D0,-1.019527559055D0,           119P     87
1.019527559055D0,1.019527559055D0,-1.020229437256D0,                 119P     88
-1.020229437256D0,1.020229437256D0,1.020229437256D0,1D0,1D0,1D0,     119P     89
1D0,1.020229437256D0,-1.019527559055D0,2.834645669291D-1,            119P     90
1.020229437256D0,1.019527559055D0,2.834645669291D-1,                 119P     91
-1.020229437256D0,-1.019527559055D0,2.834645669291D-1,               119P     92
-1.020229437256D0,1.019527559055D0,2.834645669291D-1,                119P     93
-1.019527559055D0,1.019527559055D0,-1.020229437256D0,                119P     94
1.020229437256D0;                                                    119P     95
508,2,0,71,10,1,0,0,71,7,0,0;                                        121P     96
508,2,0,71,13,1,0,0,71,14,1,0;                                       123P     97
510,119,2,0,121,123;                                                 125P     98
110,0D0,0D0,2.834645669291D-1,0D0,0D0,1.283464566929D0;              127P     99
110,9.606299212598D-1,0D0,2.702104252218D-1,9.606299212598D-1,       129P    100
0D0,2.868761889515D-1;                                               129P    101
120,127,129,-6.283185307180D-2,3.204424506662D0;                     131P    102
508,4,0,71,13,0,0,0,71,15,1,0,0,71,11,1,0,0,71,16,0,0;               133P    103
510,131,1,0,133;                                                     135P    104
110,0D0,0D0,2.834645669291D-1,0D0,0D0,1.283464566929D0;              137P    105
110,9.606299212598D-1,0D0,2.702104252218D-1,9.606299212598D-1,       139P    106
0D0,2.868761889515D-1;                                               139P    107
120,137,139,3.078760800518D0,6.346017160251D0;                       141P    108
508,4,0,71,14,0,0,0,71,16,1,0,0,71,12,1,0,0,71,15,0,0;               143P    109
510,141,1,0,143;                                                     145P    110
128,1,1,1,1,0,0,1,0,0,-9.990551181102D-1,-9.990551181102D-1,         147P    111
9.990551181102D-1,9.990551181102D-1,-9.997432230540D-1,              147P    112
-9.997432230540D-1,9.997432230540D-1,9.997432230540D-1,1D0,1D0,      147P    113
1D0,1D0,-9.990551181102D-1,-9.997432230540D-1,2.736220472441D-1,     147P    114
9.990551181102D-1,-9.997432230540D-1,2.736220472441D-1,              147P    115
-9.990551181102D-1,9.997432230540D-1,2.736220472441D-1,              147P    116
9.990551181102D-1,9.997432230540D-1,2.736220472441D-1,               147P    117
-9.990551181102D-1,9.990551181102D-1,-9.997432230540D-1,             147P    118
9.997432230540D-1;                                                   147P    119
508,2,0,71,11,0,0,0,71,12,0,0;                                       149P    120
510,147,1,0,149;                                                     151P    121
514,9,81,1,91,1,97,0,107,1,117,1,125,1,135,0,145,0,151,1;            153P    122
186,153,1,0;                                                         155P    123
S      1G      4D    156P    123                                        T      1
