ISO-10303-21;
HEADER;
FILE_DESCRIPTION((''),'2;1');
FILE_NAME('158504_SW','2011-10-06T',('banengservice'),('BANNER ENGINEERING'),
'PRO/ENGINEER BY PARAMETRIC TECHNOLOGY CORPORATION, 2009141',
'PRO/ENGINEER BY PARAMETRIC TECHNOLOGY CORPORATION, 2009141','');
FILE_SCHEMA(('CONFIG_CONTROL_DESIGN'));
ENDSEC;
DATA;
#1=CARTESIAN_POINT('',(0.E0,0.E0,0.E0));
#2=DIRECTION('',(0.E0,0.E0,-1.E0));
#3=DIRECTION('',(0.E0,1.E0,0.E0));
#4=AXIS2_PLACEMENT_3D('',#1,#2,#3);
#6=DIRECTION('',(0.E0,0.E0,1.E0));
#7=VECTOR('',#6,1.181102362205E-1);
#8=CARTESIAN_POINT('',(0.E0,8.070866141732E-1,0.E0));
#9=LINE('',#8,#7);
#10=DIRECTION('',(0.E0,0.E0,1.E0));
#11=VECTOR('',#10,1.181102362205E-1);
#12=CARTESIAN_POINT('',(0.E0,-8.070866141732E-1,0.E0));
#13=LINE('',#12,#11);
#14=CARTESIAN_POINT('',(0.E0,0.E0,0.E0));
#15=DIRECTION('',(0.E0,0.E0,1.E0));
#16=DIRECTION('',(0.E0,1.E0,0.E0));
#17=AXIS2_PLACEMENT_3D('',#14,#15,#16);
#19=CARTESIAN_POINT('',(0.E0,0.E0,1.181102362205E-1));
#20=DIRECTION('',(0.E0,0.E0,1.E0));
#21=DIRECTION('',(0.E0,1.E0,0.E0));
#22=AXIS2_PLACEMENT_3D('',#19,#20,#21);
#24=CARTESIAN_POINT('',(0.E0,0.E0,1.181102362205E-1));
#25=DIRECTION('',(0.E0,0.E0,-1.E0));
#26=DIRECTION('',(0.E0,1.E0,0.E0));
#27=AXIS2_PLACEMENT_3D('',#24,#25,#26);
#29=CARTESIAN_POINT('',(0.E0,0.E0,1.181102362205E-1));
#30=DIRECTION('',(0.E0,0.E0,-1.E0));
#31=DIRECTION('',(0.E0,1.E0,0.E0));
#32=AXIS2_PLACEMENT_3D('',#29,#30,#31);
#34=DIRECTION('',(0.E0,0.E0,1.E0));
#35=VECTOR('',#34,1.299212598425E-1);
#36=CARTESIAN_POINT('',(0.E0,7.578740157480E-1,1.181102362205E-1));
#37=LINE('',#36,#35);
#38=DIRECTION('',(0.E0,0.E0,1.E0));
#39=VECTOR('',#38,1.299212598425E-1);
#40=CARTESIAN_POINT('',(0.E0,-7.578740157480E-1,1.181102362205E-1));
#41=LINE('',#40,#39);
#42=CARTESIAN_POINT('',(0.E0,0.E0,1.181102362205E-1));
#43=DIRECTION('',(0.E0,0.E0,1.E0));
#44=DIRECTION('',(0.E0,1.E0,0.E0));
#45=AXIS2_PLACEMENT_3D('',#42,#43,#44);
#47=CARTESIAN_POINT('',(0.E0,0.E0,2.480314960630E-1));
#48=DIRECTION('',(0.E0,0.E0,1.E0));
#49=DIRECTION('',(0.E0,1.E0,0.E0));
#50=AXIS2_PLACEMENT_3D('',#47,#48,#49);
#52=CARTESIAN_POINT('',(0.E0,0.E0,2.480314960630E-1));
#53=DIRECTION('',(0.E0,0.E0,-1.E0));
#54=DIRECTION('',(0.E0,1.E0,0.E0));
#55=AXIS2_PLACEMENT_3D('',#52,#53,#54);
#57=CARTESIAN_POINT('',(0.E0,0.E0,2.480314960630E-1));
#58=DIRECTION('',(0.E0,0.E0,-1.E0));
#59=DIRECTION('',(0.E0,1.E0,0.E0));
#60=AXIS2_PLACEMENT_3D('',#57,#58,#59);
#62=DIRECTION('',(0.E0,0.E0,-1.E0));
#63=VECTOR('',#62,3.937007874016E-3);
#64=CARTESIAN_POINT('',(0.E0,7.381889763780E-1,2.480314960630E-1));
#65=LINE('',#64,#63);
#66=DIRECTION('',(0.E0,0.E0,-1.E0));
#67=VECTOR('',#66,3.937007874016E-3);
#68=CARTESIAN_POINT('',(0.E0,-7.381889763780E-1,2.480314960630E-1));
#69=LINE('',#68,#67);
#70=CARTESIAN_POINT('',(0.E0,0.E0,2.480314960630E-1));
#71=DIRECTION('',(0.E0,0.E0,1.E0));
#72=DIRECTION('',(0.E0,1.E0,0.E0));
#73=AXIS2_PLACEMENT_3D('',#70,#71,#72);
#75=CARTESIAN_POINT('',(0.E0,0.E0,2.440944881890E-1));
#76=DIRECTION('',(0.E0,0.E0,1.E0));
#77=DIRECTION('',(0.E0,1.E0,0.E0));
#78=AXIS2_PLACEMENT_3D('',#75,#76,#77);
#80=CARTESIAN_POINT('',(0.E0,0.E0,2.440944881890E-1));
#81=DIRECTION('',(0.E0,0.E0,-1.E0));
#82=DIRECTION('',(0.E0,1.E0,0.E0));
#83=AXIS2_PLACEMENT_3D('',#80,#81,#82);
#85=CARTESIAN_POINT('',(0.E0,7.578740157480E-1,1.181102362205E-1));
#86=CARTESIAN_POINT('',(0.E0,7.578740157480E-1,2.480314960630E-1));
#87=VERTEX_POINT('',#85);
#88=VERTEX_POINT('',#86);
#89=CARTESIAN_POINT('',(0.E0,-7.578740157480E-1,1.181102362205E-1));
#90=CARTESIAN_POINT('',(0.E0,-7.578740157480E-1,2.480314960630E-1));
#91=VERTEX_POINT('',#89);
#92=VERTEX_POINT('',#90);
#93=CARTESIAN_POINT('',(0.E0,8.070866141732E-1,0.E0));
#94=CARTESIAN_POINT('',(0.E0,8.070866141732E-1,1.181102362205E-1));
#95=VERTEX_POINT('',#93);
#96=VERTEX_POINT('',#94);
#97=CARTESIAN_POINT('',(0.E0,-8.070866141732E-1,0.E0));
#98=CARTESIAN_POINT('',(0.E0,-8.070866141732E-1,1.181102362205E-1));
#99=VERTEX_POINT('',#97);
#100=VERTEX_POINT('',#98);
#101=CARTESIAN_POINT('',(0.E0,7.381889763780E-1,2.480314960630E-1));
#102=CARTESIAN_POINT('',(0.E0,7.381889763780E-1,2.440944881890E-1));
#103=VERTEX_POINT('',#101);
#104=VERTEX_POINT('',#102);
#105=CARTESIAN_POINT('',(0.E0,-7.381889763780E-1,2.480314960630E-1));
#106=CARTESIAN_POINT('',(0.E0,-7.381889763780E-1,2.440944881890E-1));
#107=VERTEX_POINT('',#105);
#108=VERTEX_POINT('',#106);
#109=CARTESIAN_POINT('',(0.E0,0.E0,0.E0));
#110=DIRECTION('',(0.E0,0.E0,-1.E0));
#111=DIRECTION('',(0.E0,-1.E0,0.E0));
#112=AXIS2_PLACEMENT_3D('',#109,#110,#111);
#113=PLANE('',#112);
#115=ORIENTED_EDGE('',*,*,#114,.F.);
#117=ORIENTED_EDGE('',*,*,#116,.T.);
#118=EDGE_LOOP('',(#115,#117));
#119=FACE_OUTER_BOUND('',#118,.F.);
#120=ADVANCED_FACE('',(#119),#113,.T.);
#121=CARTESIAN_POINT('',(0.E0,0.E0,2.604330708661E-1));
#122=DIRECTION('',(0.E0,0.E0,-1.E0));
#123=DIRECTION('',(0.E0,-1.E0,0.E0));
#124=AXIS2_PLACEMENT_3D('',#121,#122,#123);
#125=CYLINDRICAL_SURFACE('',#124,8.070866141732E-1);
#127=ORIENTED_EDGE('',*,*,#126,.F.);
#128=ORIENTED_EDGE('',*,*,#114,.T.);
#130=ORIENTED_EDGE('',*,*,#129,.T.);
#132=ORIENTED_EDGE('',*,*,#131,.F.);
#133=EDGE_LOOP('',(#127,#128,#130,#132));
#134=FACE_OUTER_BOUND('',#133,.F.);
#135=ADVANCED_FACE('',(#134),#125,.T.);
#136=CARTESIAN_POINT('',(0.E0,0.E0,2.604330708661E-1));
#137=DIRECTION('',(0.E0,0.E0,-1.E0));
#138=DIRECTION('',(0.E0,-1.E0,0.E0));
#139=AXIS2_PLACEMENT_3D('',#136,#137,#138);
#140=CYLINDRICAL_SURFACE('',#139,8.070866141732E-1);
#141=ORIENTED_EDGE('',*,*,#126,.T.);
#143=ORIENTED_EDGE('',*,*,#142,.T.);
#144=ORIENTED_EDGE('',*,*,#129,.F.);
#145=ORIENTED_EDGE('',*,*,#116,.F.);
#146=EDGE_LOOP('',(#141,#143,#144,#145));
#147=FACE_OUTER_BOUND('',#146,.F.);
#148=ADVANCED_FACE('',(#147),#140,.T.);
#149=CARTESIAN_POINT('',(0.E0,0.E0,1.181102362205E-1));
#150=DIRECTION('',(0.E0,0.E0,-1.E0));
#151=DIRECTION('',(0.E0,-1.E0,0.E0));
#152=AXIS2_PLACEMENT_3D('',#149,#150,#151);
#153=PLANE('',#152);
#154=ORIENTED_EDGE('',*,*,#142,.F.);
#155=ORIENTED_EDGE('',*,*,#131,.T.);
#156=EDGE_LOOP('',(#154,#155));
#157=FACE_OUTER_BOUND('',#156,.F.);
#159=ORIENTED_EDGE('',*,*,#158,.F.);
#161=ORIENTED_EDGE('',*,*,#160,.T.);
#162=EDGE_LOOP('',(#159,#161));
#163=FACE_BOUND('',#162,.F.);
#164=ADVANCED_FACE('',(#157,#163),#153,.F.);
#165=CARTESIAN_POINT('',(0.E0,0.E0,2.604330708661E-1));
#166=DIRECTION('',(0.E0,0.E0,-1.E0));
#167=DIRECTION('',(0.E0,-1.E0,0.E0));
#168=AXIS2_PLACEMENT_3D('',#165,#166,#167);
#169=CYLINDRICAL_SURFACE('',#168,7.578740157480E-1);
#171=ORIENTED_EDGE('',*,*,#170,.F.);
#172=ORIENTED_EDGE('',*,*,#158,.T.);
#174=ORIENTED_EDGE('',*,*,#173,.T.);
#176=ORIENTED_EDGE('',*,*,#175,.F.);
#177=EDGE_LOOP('',(#171,#172,#174,#176));
#178=FACE_OUTER_BOUND('',#177,.F.);
#179=ADVANCED_FACE('',(#178),#169,.T.);
#180=CARTESIAN_POINT('',(0.E0,0.E0,2.604330708661E-1));
#181=DIRECTION('',(0.E0,0.E0,-1.E0));
#182=DIRECTION('',(0.E0,-1.E0,0.E0));
#183=AXIS2_PLACEMENT_3D('',#180,#181,#182);
#184=CYLINDRICAL_SURFACE('',#183,7.578740157480E-1);
#185=ORIENTED_EDGE('',*,*,#170,.T.);
#187=ORIENTED_EDGE('',*,*,#186,.T.);
#188=ORIENTED_EDGE('',*,*,#173,.F.);
#189=ORIENTED_EDGE('',*,*,#160,.F.);
#190=EDGE_LOOP('',(#185,#187,#188,#189));
#191=FACE_OUTER_BOUND('',#190,.F.);
#192=ADVANCED_FACE('',(#191),#184,.T.);
#193=CARTESIAN_POINT('',(0.E0,0.E0,2.480314960630E-1));
#194=DIRECTION('',(0.E0,0.E0,-1.E0));
#195=DIRECTION('',(0.E0,-1.E0,0.E0));
#196=AXIS2_PLACEMENT_3D('',#193,#194,#195);
#197=PLANE('',#196);
#198=ORIENTED_EDGE('',*,*,#186,.F.);
#199=ORIENTED_EDGE('',*,*,#175,.T.);
#200=EDGE_LOOP('',(#198,#199));
#201=FACE_OUTER_BOUND('',#200,.F.);
#203=ORIENTED_EDGE('',*,*,#202,.F.);
#205=ORIENTED_EDGE('',*,*,#204,.T.);
#206=EDGE_LOOP('',(#203,#205));
#207=FACE_BOUND('',#206,.F.);
#208=ADVANCED_FACE('',(#201,#207),#197,.F.);
#209=CARTESIAN_POINT('',(0.E0,0.E0,2.604330708661E-1));
#210=DIRECTION('',(0.E0,0.E0,-1.E0));
#211=DIRECTION('',(0.E0,-1.E0,0.E0));
#212=AXIS2_PLACEMENT_3D('',#209,#210,#211);
#213=CYLINDRICAL_SURFACE('',#212,7.381889763780E-1);
#215=ORIENTED_EDGE('',*,*,#214,.F.);
#216=ORIENTED_EDGE('',*,*,#202,.T.);
#218=ORIENTED_EDGE('',*,*,#217,.T.);
#220=ORIENTED_EDGE('',*,*,#219,.F.);
#221=EDGE_LOOP('',(#215,#216,#218,#220));
#222=FACE_OUTER_BOUND('',#221,.F.);
#223=ADVANCED_FACE('',(#222),#213,.F.);
#224=CARTESIAN_POINT('',(0.E0,0.E0,2.604330708661E-1));
#225=DIRECTION('',(0.E0,0.E0,-1.E0));
#226=DIRECTION('',(0.E0,-1.E0,0.E0));
#227=AXIS2_PLACEMENT_3D('',#224,#225,#226);
#228=CYLINDRICAL_SURFACE('',#227,7.381889763780E-1);
#229=ORIENTED_EDGE('',*,*,#214,.T.);
#231=ORIENTED_EDGE('',*,*,#230,.T.);
#232=ORIENTED_EDGE('',*,*,#217,.F.);
#233=ORIENTED_EDGE('',*,*,#204,.F.);
#234=EDGE_LOOP('',(#229,#231,#232,#233));
#235=FACE_OUTER_BOUND('',#234,.F.);
#236=ADVANCED_FACE('',(#235),#228,.F.);
#237=CARTESIAN_POINT('',(0.E0,0.E0,2.440944881890E-1));
#238=DIRECTION('',(0.E0,0.E0,-1.E0));
#239=DIRECTION('',(0.E0,-1.E0,0.E0));
#240=AXIS2_PLACEMENT_3D('',#237,#238,#239);
#241=PLANE('',#240);
#242=ORIENTED_EDGE('',*,*,#230,.F.);
#243=ORIENTED_EDGE('',*,*,#219,.T.);
#244=EDGE_LOOP('',(#242,#243));
#245=FACE_OUTER_BOUND('',#244,.F.);
#246=ADVANCED_FACE('',(#245),#241,.F.);
#247=CLOSED_SHELL('',(#120,#135,#148,#164,#179,#192,#208,#223,#236,#246));
#248=MANIFOLD_SOLID_BREP('',#247);
#249=DIMENSIONAL_EXPONENTS(1.E0,0.E0,0.E0,0.E0,0.E0,0.E0,0.E0);
#250=(LENGTH_UNIT()NAMED_UNIT(*)SI_UNIT(.MILLI.,.METRE.));
#251=LENGTH_MEASURE_WITH_UNIT(LENGTH_MEASURE(2.54E1),#250);
#252=(CONVERSION_BASED_UNIT('INCH',#251)LENGTH_UNIT()NAMED_UNIT(#249));
#253=DIMENSIONAL_EXPONENTS(0.E0,0.E0,0.E0,0.E0,0.E0,0.E0,0.E0);
#254=(NAMED_UNIT(*)PLANE_ANGLE_UNIT()SI_UNIT($,.RADIAN.));
#255=PLANE_ANGLE_MEASURE_WITH_UNIT(PLANE_ANGLE_MEASURE(1.745329251994E-2),#254);
#256=(CONVERSION_BASED_UNIT('DEGREE',#255)NAMED_UNIT(#253)PLANE_ANGLE_UNIT());
#257=(NAMED_UNIT(*)SI_UNIT($,.STERADIAN.)SOLID_ANGLE_UNIT());
#258=UNCERTAINTY_MEASURE_WITH_UNIT(LENGTH_MEASURE(2.296469513330E-4),#252,
'closure',
'Maximum model space distance between geometric entities at asserted connectivities');
#259=(GEOMETRIC_REPRESENTATION_CONTEXT(3)GLOBAL_UNCERTAINTY_ASSIGNED_CONTEXT((
#258))GLOBAL_UNIT_ASSIGNED_CONTEXT((#252,#256,#257))REPRESENTATION_CONTEXT
('ID1','3'));
#261=APPLICATION_CONTEXT(
'CONFIGURATION CONTROLLED 3D DESIGNS OF MECHANICAL PARTS AND ASSEMBLIES');
#262=APPLICATION_PROTOCOL_DEFINITION('international standard',
'config_control_design',1994,#261);
#263=DESIGN_CONTEXT('',#261,'design');
#264=MECHANICAL_CONTEXT('',#261,'mechanical');
#265=PRODUCT('158504_SW','158504_SW','NOT SPECIFIED',(#264));
#266=PRODUCT_DEFINITION_FORMATION_WITH_SPECIFIED_SOURCE('','LAST_VERSION',#265,
.MADE.);
#270=PRODUCT_CATEGORY('part','');
#271=PRODUCT_RELATED_PRODUCT_CATEGORY('detail','',(#265));
#272=PRODUCT_CATEGORY_RELATIONSHIP('','',#270,#271);
#273=SECURITY_CLASSIFICATION_LEVEL('unclassified');
#274=SECURITY_CLASSIFICATION('','',#273);
#275=CC_DESIGN_SECURITY_CLASSIFICATION(#274,(#266));
#276=APPROVAL_STATUS('approved');
#277=APPROVAL(#276,'');
#278=CC_DESIGN_APPROVAL(#277,(#274,#266,#267));
#279=CALENDAR_DATE(111,6,10);
#280=COORDINATED_UNIVERSAL_TIME_OFFSET(5,0,.BEHIND.);
#281=LOCAL_TIME(12,43,1.3E1,#280);
#282=DATE_AND_TIME(#279,#281);
#283=APPROVAL_DATE_TIME(#282,#277);
#284=DATE_TIME_ROLE('creation_date');
#285=CC_DESIGN_DATE_AND_TIME_ASSIGNMENT(#282,#284,(#267));
#286=DATE_TIME_ROLE('classification_date');
#287=CC_DESIGN_DATE_AND_TIME_ASSIGNMENT(#282,#286,(#274));
#288=PERSON('UNSPECIFIED','UNSPECIFIED',$,$,$,$);
#289=ORGANIZATION('UNSPECIFIED','UNSPECIFIED','UNSPECIFIED');
#290=PERSON_AND_ORGANIZATION(#288,#289);
#291=APPROVAL_ROLE('approver');
#292=APPROVAL_PERSON_ORGANIZATION(#290,#277,#291);
#293=PERSON_AND_ORGANIZATION_ROLE('creator');
#294=CC_DESIGN_PERSON_AND_ORGANIZATION_ASSIGNMENT(#290,#293,(#266,#267));
#295=PERSON_AND_ORGANIZATION_ROLE('design_supplier');
#296=CC_DESIGN_PERSON_AND_ORGANIZATION_ASSIGNMENT(#290,#295,(#266));
#297=PERSON_AND_ORGANIZATION_ROLE('classification_officer');
#298=CC_DESIGN_PERSON_AND_ORGANIZATION_ASSIGNMENT(#290,#297,(#274));
#299=PERSON_AND_ORGANIZATION_ROLE('design_owner');
#300=CC_DESIGN_PERSON_AND_ORGANIZATION_ASSIGNMENT(#290,#299,(#265));
#5=CIRCLE('',#4,8.070866141732E-1);
#18=CIRCLE('',#17,8.070866141732E-1);
#23=CIRCLE('',#22,8.070866141732E-1);
#28=CIRCLE('',#27,8.070866141732E-1);
#33=CIRCLE('',#32,7.578740157480E-1);
#46=CIRCLE('',#45,7.578740157480E-1);
#51=CIRCLE('',#50,7.578740157480E-1);
#56=CIRCLE('',#55,7.578740157480E-1);
#61=CIRCLE('',#60,7.381889763780E-1);
#74=CIRCLE('',#73,7.381889763780E-1);
#79=CIRCLE('',#78,7.381889763780E-1);
#84=CIRCLE('',#83,7.381889763780E-1);
#114=EDGE_CURVE('',#95,#99,#5,.T.);
#116=EDGE_CURVE('',#95,#99,#18,.T.);
#126=EDGE_CURVE('',#95,#96,#9,.T.);
#129=EDGE_CURVE('',#99,#100,#13,.T.);
#131=EDGE_CURVE('',#96,#100,#28,.T.);
#142=EDGE_CURVE('',#96,#100,#23,.T.);
#158=EDGE_CURVE('',#87,#91,#33,.T.);
#160=EDGE_CURVE('',#87,#91,#46,.T.);
#170=EDGE_CURVE('',#87,#88,#37,.T.);
#173=EDGE_CURVE('',#91,#92,#41,.T.);
#175=EDGE_CURVE('',#88,#92,#56,.T.);
#186=EDGE_CURVE('',#88,#92,#51,.T.);
#202=EDGE_CURVE('',#103,#107,#61,.T.);
#204=EDGE_CURVE('',#103,#107,#74,.T.);
#214=EDGE_CURVE('',#103,#104,#65,.T.);
#217=EDGE_CURVE('',#107,#108,#69,.T.);
#219=EDGE_CURVE('',#104,#108,#84,.T.);
#230=EDGE_CURVE('',#104,#108,#79,.T.);
#260=ADVANCED_BREP_SHAPE_REPRESENTATION('',(#248),#259);
#267=PRODUCT_DEFINITION('design','',#266,#263);
#268=PRODUCT_DEFINITION_SHAPE('','SHAPE FOR 158504_SW.',#267);
#269=SHAPE_DEFINITION_REPRESENTATION(#268,#260);
ENDSEC;
END-ISO-10303-21;
