ISO-10303-21;
HEADER;
FILE_DESCRIPTION((''),'2;1');
FILE_NAME('158500_SW','2011-10-06T',('banengservice'),('BANNER ENGINEERING'),
'PRO/ENGINEER BY PARAMETRIC TECHNOLOGY CORPORATION, 2009141',
'PRO/ENGINEER BY PARAMETRIC TECHNOLOGY CORPORATION, 2009141','');
FILE_SCHEMA(('CONFIG_CONTROL_DESIGN'));
ENDSEC;
DATA;
#1=DIRECTION('',(0.E0,-1.E0,0.E0));
#2=VECTOR('',#1,9.094488188976E-1);
#3=CARTESIAN_POINT('',(-7.696850393701E-1,4.547244094488E-1,0.E0));
#4=LINE('',#3,#2);
#5=DIRECTION('',(1.E0,0.E0,0.E0));
#6=VECTOR('',#5,1.539370078740E0);
#7=CARTESIAN_POINT('',(-7.696850393701E-1,-4.547244094488E-1,0.E0));
#8=LINE('',#7,#6);
#9=DIRECTION('',(0.E0,1.E0,0.E0));
#10=VECTOR('',#9,9.094488188976E-1);
#11=CARTESIAN_POINT('',(7.696850393701E-1,-4.547244094488E-1,0.E0));
#12=LINE('',#11,#10);
#13=DIRECTION('',(-1.E0,0.E0,0.E0));
#14=VECTOR('',#13,1.539370078740E0);
#15=CARTESIAN_POINT('',(7.696850393701E-1,4.547244094488E-1,0.E0));
#16=LINE('',#15,#14);
#17=CARTESIAN_POINT('',(6.318897637795E-1,6.102362204724E-2,0.E0));
#18=DIRECTION('',(0.E0,0.E0,1.E0));
#19=DIRECTION('',(1.E0,0.E0,0.E0));
#20=AXIS2_PLACEMENT_3D('',#17,#18,#19);
#22=CARTESIAN_POINT('',(6.318897637795E-1,6.102362204724E-2,0.E0));
#23=DIRECTION('',(0.E0,0.E0,1.E0));
#24=DIRECTION('',(-1.E0,0.E0,0.E0));
#25=AXIS2_PLACEMENT_3D('',#22,#23,#24);
#27=CARTESIAN_POINT('',(-6.279527559055E-1,6.102362204724E-2,0.E0));
#28=DIRECTION('',(0.E0,0.E0,1.E0));
#29=DIRECTION('',(1.E0,0.E0,0.E0));
#30=AXIS2_PLACEMENT_3D('',#27,#28,#29);
#32=CARTESIAN_POINT('',(-6.279527559055E-1,6.102362204724E-2,0.E0));
#33=DIRECTION('',(0.E0,0.E0,1.E0));
#34=DIRECTION('',(-1.E0,0.E0,0.E0));
#35=AXIS2_PLACEMENT_3D('',#32,#33,#34);
#37=DIRECTION('',(0.E0,0.E0,1.E0));
#38=VECTOR('',#37,3.228346456693E-1);
#39=CARTESIAN_POINT('',(-7.696850393701E-1,4.547244094488E-1,0.E0));
#40=LINE('',#39,#38);
#41=DIRECTION('',(0.E0,0.E0,1.E0));
#42=VECTOR('',#41,3.228346456693E-1);
#43=CARTESIAN_POINT('',(7.696850393701E-1,4.547244094488E-1,0.E0));
#44=LINE('',#43,#42);
#45=DIRECTION('',(0.E0,0.E0,1.E0));
#46=VECTOR('',#45,3.228346456693E-1);
#47=CARTESIAN_POINT('',(7.696850393701E-1,-4.547244094488E-1,0.E0));
#48=LINE('',#47,#46);
#49=DIRECTION('',(0.E0,0.E0,1.E0));
#50=VECTOR('',#49,3.228346456693E-1);
#51=CARTESIAN_POINT('',(-7.696850393701E-1,-4.547244094488E-1,0.E0));
#52=LINE('',#51,#50);
#53=DIRECTION('',(0.E0,-1.E0,0.E0));
#54=VECTOR('',#53,9.094488188976E-1);
#55=CARTESIAN_POINT('',(-7.696850393701E-1,4.547244094488E-1,
3.228346456693E-1));
#56=LINE('',#55,#54);
#57=DIRECTION('',(-1.E0,0.E0,0.E0));
#58=VECTOR('',#57,1.539370078740E0);
#59=CARTESIAN_POINT('',(7.696850393701E-1,4.547244094488E-1,3.228346456693E-1));
#60=LINE('',#59,#58);
#61=DIRECTION('',(0.E0,1.E0,0.E0));
#62=VECTOR('',#61,9.094488188976E-1);
#63=CARTESIAN_POINT('',(7.696850393701E-1,-4.547244094488E-1,
3.228346456693E-1));
#64=LINE('',#63,#62);
#65=DIRECTION('',(1.E0,0.E0,0.E0));
#66=VECTOR('',#65,1.539370078740E0);
#67=CARTESIAN_POINT('',(-7.696850393701E-1,-4.547244094488E-1,
3.228346456693E-1));
#68=LINE('',#67,#66);
#69=CARTESIAN_POINT('',(6.318897637795E-1,6.102362204724E-2,3.228346456693E-1));
#70=DIRECTION('',(0.E0,0.E0,1.E0));
#71=DIRECTION('',(1.E0,0.E0,0.E0));
#72=AXIS2_PLACEMENT_3D('',#69,#70,#71);
#74=CARTESIAN_POINT('',(6.318897637795E-1,6.102362204724E-2,3.228346456693E-1));
#75=DIRECTION('',(0.E0,0.E0,1.E0));
#76=DIRECTION('',(-1.E0,0.E0,0.E0));
#77=AXIS2_PLACEMENT_3D('',#74,#75,#76);
#79=CARTESIAN_POINT('',(-6.279527559055E-1,6.102362204724E-2,
3.228346456693E-1));
#80=DIRECTION('',(0.E0,0.E0,1.E0));
#81=DIRECTION('',(1.E0,0.E0,0.E0));
#82=AXIS2_PLACEMENT_3D('',#79,#80,#81);
#84=CARTESIAN_POINT('',(-6.279527559055E-1,6.102362204724E-2,
3.228346456693E-1));
#85=DIRECTION('',(0.E0,0.E0,1.E0));
#86=DIRECTION('',(-1.E0,0.E0,0.E0));
#87=AXIS2_PLACEMENT_3D('',#84,#85,#86);
#89=DIRECTION('',(0.E0,0.E0,-1.E0));
#90=VECTOR('',#89,3.228346456693E-1);
#91=CARTESIAN_POINT('',(7.007874015748E-1,6.102362204724E-2,3.228346456693E-1));
#92=LINE('',#91,#90);
#93=DIRECTION('',(0.E0,0.E0,-1.E0));
#94=VECTOR('',#93,3.228346456693E-1);
#95=CARTESIAN_POINT('',(5.629921259843E-1,6.102362204724E-2,3.228346456693E-1));
#96=LINE('',#95,#94);
#97=DIRECTION('',(0.E0,0.E0,-1.E0));
#98=VECTOR('',#97,3.228346456693E-1);
#99=CARTESIAN_POINT('',(-5.590551181102E-1,6.102362204724E-2,
3.228346456693E-1));
#100=LINE('',#99,#98);
#101=DIRECTION('',(0.E0,0.E0,-1.E0));
#102=VECTOR('',#101,3.228346456693E-1);
#103=CARTESIAN_POINT('',(-6.968503937008E-1,6.102362204724E-2,
3.228346456693E-1));
#104=LINE('',#103,#102);
#105=CARTESIAN_POINT('',(-7.696850393701E-1,4.547244094488E-1,0.E0));
#106=CARTESIAN_POINT('',(-7.696850393701E-1,-4.547244094488E-1,0.E0));
#107=VERTEX_POINT('',#105);
#108=VERTEX_POINT('',#106);
#109=CARTESIAN_POINT('',(7.696850393701E-1,-4.547244094488E-1,0.E0));
#110=VERTEX_POINT('',#109);
#111=CARTESIAN_POINT('',(7.696850393701E-1,4.547244094488E-1,0.E0));
#112=VERTEX_POINT('',#111);
#113=CARTESIAN_POINT('',(-7.696850393701E-1,4.547244094488E-1,
3.228346456693E-1));
#114=CARTESIAN_POINT('',(-7.696850393701E-1,-4.547244094488E-1,
3.228346456693E-1));
#115=VERTEX_POINT('',#113);
#116=VERTEX_POINT('',#114);
#117=CARTESIAN_POINT('',(7.696850393701E-1,-4.547244094488E-1,
3.228346456693E-1));
#118=VERTEX_POINT('',#117);
#119=CARTESIAN_POINT('',(7.696850393701E-1,4.547244094488E-1,
3.228346456693E-1));
#120=VERTEX_POINT('',#119);
#121=CARTESIAN_POINT('',(7.007874015748E-1,6.102362204724E-2,0.E0));
#122=CARTESIAN_POINT('',(5.629921259843E-1,6.102362204724E-2,0.E0));
#123=VERTEX_POINT('',#121);
#124=VERTEX_POINT('',#122);
#125=CARTESIAN_POINT('',(-5.590551181102E-1,6.102362204724E-2,0.E0));
#126=CARTESIAN_POINT('',(-6.968503937008E-1,6.102362204724E-2,0.E0));
#127=VERTEX_POINT('',#125);
#128=VERTEX_POINT('',#126);
#129=CARTESIAN_POINT('',(7.007874015748E-1,6.102362204724E-2,
3.228346456693E-1));
#130=CARTESIAN_POINT('',(5.629921259843E-1,6.102362204724E-2,
3.228346456693E-1));
#131=VERTEX_POINT('',#129);
#132=VERTEX_POINT('',#130);
#133=CARTESIAN_POINT('',(-5.590551181102E-1,6.102362204724E-2,
3.228346456693E-1));
#134=CARTESIAN_POINT('',(-6.968503937008E-1,6.102362204724E-2,
3.228346456693E-1));
#135=VERTEX_POINT('',#133);
#136=VERTEX_POINT('',#134);
#137=CARTESIAN_POINT('',(0.E0,0.E0,0.E0));
#138=DIRECTION('',(0.E0,0.E0,1.E0));
#139=DIRECTION('',(1.E0,0.E0,0.E0));
#140=AXIS2_PLACEMENT_3D('',#137,#138,#139);
#141=PLANE('',#140);
#143=ORIENTED_EDGE('',*,*,#142,.T.);
#145=ORIENTED_EDGE('',*,*,#144,.T.);
#147=ORIENTED_EDGE('',*,*,#146,.T.);
#149=ORIENTED_EDGE('',*,*,#148,.T.);
#150=EDGE_LOOP('',(#143,#145,#147,#149));
#151=FACE_OUTER_BOUND('',#150,.F.);
#153=ORIENTED_EDGE('',*,*,#152,.F.);
#155=ORIENTED_EDGE('',*,*,#154,.F.);
#156=EDGE_LOOP('',(#153,#155));
#157=FACE_BOUND('',#156,.F.);
#159=ORIENTED_EDGE('',*,*,#158,.F.);
#161=ORIENTED_EDGE('',*,*,#160,.F.);
#162=EDGE_LOOP('',(#159,#161));
#163=FACE_BOUND('',#162,.F.);
#164=ADVANCED_FACE('',(#151,#157,#163),#141,.F.);
#165=CARTESIAN_POINT('',(-7.696850393701E-1,4.547244094488E-1,0.E0));
#166=DIRECTION('',(-1.E0,0.E0,0.E0));
#167=DIRECTION('',(0.E0,-1.E0,0.E0));
#168=AXIS2_PLACEMENT_3D('',#165,#166,#167);
#169=PLANE('',#168);
#170=ORIENTED_EDGE('',*,*,#142,.F.);
#172=ORIENTED_EDGE('',*,*,#171,.T.);
#174=ORIENTED_EDGE('',*,*,#173,.T.);
#176=ORIENTED_EDGE('',*,*,#175,.F.);
#177=EDGE_LOOP('',(#170,#172,#174,#176));
#178=FACE_OUTER_BOUND('',#177,.F.);
#179=ADVANCED_FACE('',(#178),#169,.T.);
#180=CARTESIAN_POINT('',(7.696850393701E-1,4.547244094488E-1,0.E0));
#181=DIRECTION('',(0.E0,1.E0,0.E0));
#182=DIRECTION('',(-1.E0,0.E0,0.E0));
#183=AXIS2_PLACEMENT_3D('',#180,#181,#182);
#184=PLANE('',#183);
#185=ORIENTED_EDGE('',*,*,#148,.F.);
#187=ORIENTED_EDGE('',*,*,#186,.T.);
#189=ORIENTED_EDGE('',*,*,#188,.T.);
#190=ORIENTED_EDGE('',*,*,#171,.F.);
#191=EDGE_LOOP('',(#185,#187,#189,#190));
#192=FACE_OUTER_BOUND('',#191,.F.);
#193=ADVANCED_FACE('',(#192),#184,.T.);
#194=CARTESIAN_POINT('',(7.696850393701E-1,-4.547244094488E-1,0.E0));
#195=DIRECTION('',(1.E0,0.E0,0.E0));
#196=DIRECTION('',(0.E0,1.E0,0.E0));
#197=AXIS2_PLACEMENT_3D('',#194,#195,#196);
#198=PLANE('',#197);
#199=ORIENTED_EDGE('',*,*,#146,.F.);
#201=ORIENTED_EDGE('',*,*,#200,.T.);
#203=ORIENTED_EDGE('',*,*,#202,.T.);
#204=ORIENTED_EDGE('',*,*,#186,.F.);
#205=EDGE_LOOP('',(#199,#201,#203,#204));
#206=FACE_OUTER_BOUND('',#205,.F.);
#207=ADVANCED_FACE('',(#206),#198,.T.);
#208=CARTESIAN_POINT('',(-7.696850393701E-1,-4.547244094488E-1,0.E0));
#209=DIRECTION('',(0.E0,-1.E0,0.E0));
#210=DIRECTION('',(1.E0,0.E0,0.E0));
#211=AXIS2_PLACEMENT_3D('',#208,#209,#210);
#212=PLANE('',#211);
#213=ORIENTED_EDGE('',*,*,#144,.F.);
#214=ORIENTED_EDGE('',*,*,#175,.T.);
#216=ORIENTED_EDGE('',*,*,#215,.T.);
#217=ORIENTED_EDGE('',*,*,#200,.F.);
#218=EDGE_LOOP('',(#213,#214,#216,#217));
#219=FACE_OUTER_BOUND('',#218,.F.);
#220=ADVANCED_FACE('',(#219),#212,.T.);
#221=CARTESIAN_POINT('',(0.E0,0.E0,3.228346456693E-1));
#222=DIRECTION('',(0.E0,0.E0,1.E0));
#223=DIRECTION('',(1.E0,0.E0,0.E0));
#224=AXIS2_PLACEMENT_3D('',#221,#222,#223);
#225=PLANE('',#224);
#226=ORIENTED_EDGE('',*,*,#173,.F.);
#227=ORIENTED_EDGE('',*,*,#188,.F.);
#228=ORIENTED_EDGE('',*,*,#202,.F.);
#229=ORIENTED_EDGE('',*,*,#215,.F.);
#230=EDGE_LOOP('',(#226,#227,#228,#229));
#231=FACE_OUTER_BOUND('',#230,.F.);
#233=ORIENTED_EDGE('',*,*,#232,.T.);
#235=ORIENTED_EDGE('',*,*,#234,.T.);
#236=EDGE_LOOP('',(#233,#235));
#237=FACE_BOUND('',#236,.F.);
#239=ORIENTED_EDGE('',*,*,#238,.T.);
#241=ORIENTED_EDGE('',*,*,#240,.T.);
#242=EDGE_LOOP('',(#239,#241));
#243=FACE_BOUND('',#242,.F.);
#244=ADVANCED_FACE('',(#231,#237,#243),#225,.T.);
#245=CARTESIAN_POINT('',(6.318897637795E-1,6.102362204724E-2,
3.228346456693E-1));
#246=DIRECTION('',(0.E0,0.E0,1.E0));
#247=DIRECTION('',(1.E0,0.E0,0.E0));
#248=AXIS2_PLACEMENT_3D('',#245,#246,#247);
#249=CYLINDRICAL_SURFACE('',#248,6.889763779528E-2);
#250=ORIENTED_EDGE('',*,*,#152,.T.);
#252=ORIENTED_EDGE('',*,*,#251,.F.);
#253=ORIENTED_EDGE('',*,*,#232,.F.);
#255=ORIENTED_EDGE('',*,*,#254,.T.);
#256=EDGE_LOOP('',(#250,#252,#253,#255));
#257=FACE_OUTER_BOUND('',#256,.F.);
#258=ADVANCED_FACE('',(#257),#249,.F.);
#259=CARTESIAN_POINT('',(6.318897637795E-1,6.102362204724E-2,
3.228346456693E-1));
#260=DIRECTION('',(0.E0,0.E0,1.E0));
#261=DIRECTION('',(1.E0,0.E0,0.E0));
#262=AXIS2_PLACEMENT_3D('',#259,#260,#261);
#263=CYLINDRICAL_SURFACE('',#262,6.889763779528E-2);
#264=ORIENTED_EDGE('',*,*,#154,.T.);
#265=ORIENTED_EDGE('',*,*,#254,.F.);
#266=ORIENTED_EDGE('',*,*,#234,.F.);
#267=ORIENTED_EDGE('',*,*,#251,.T.);
#268=EDGE_LOOP('',(#264,#265,#266,#267));
#269=FACE_OUTER_BOUND('',#268,.F.);
#270=ADVANCED_FACE('',(#269),#263,.F.);
#271=CARTESIAN_POINT('',(-6.279527559055E-1,6.102362204724E-2,
3.228346456693E-1));
#272=DIRECTION('',(0.E0,0.E0,1.E0));
#273=DIRECTION('',(1.E0,0.E0,0.E0));
#274=AXIS2_PLACEMENT_3D('',#271,#272,#273);
#275=CYLINDRICAL_SURFACE('',#274,6.889763779528E-2);
#276=ORIENTED_EDGE('',*,*,#158,.T.);
#278=ORIENTED_EDGE('',*,*,#277,.F.);
#279=ORIENTED_EDGE('',*,*,#238,.F.);
#281=ORIENTED_EDGE('',*,*,#280,.T.);
#282=EDGE_LOOP('',(#276,#278,#279,#281));
#283=FACE_OUTER_BOUND('',#282,.F.);
#284=ADVANCED_FACE('',(#283),#275,.F.);
#285=CARTESIAN_POINT('',(-6.279527559055E-1,6.102362204724E-2,
3.228346456693E-1));
#286=DIRECTION('',(0.E0,0.E0,1.E0));
#287=DIRECTION('',(1.E0,0.E0,0.E0));
#288=AXIS2_PLACEMENT_3D('',#285,#286,#287);
#289=CYLINDRICAL_SURFACE('',#288,6.889763779528E-2);
#290=ORIENTED_EDGE('',*,*,#160,.T.);
#291=ORIENTED_EDGE('',*,*,#280,.F.);
#292=ORIENTED_EDGE('',*,*,#240,.F.);
#293=ORIENTED_EDGE('',*,*,#277,.T.);
#294=EDGE_LOOP('',(#290,#291,#292,#293));
#295=FACE_OUTER_BOUND('',#294,.F.);
#296=ADVANCED_FACE('',(#295),#289,.F.);
#297=CLOSED_SHELL('',(#164,#179,#193,#207,#220,#244,#258,#270,#284,#296));
#298=MANIFOLD_SOLID_BREP('',#297);
#299=DIMENSIONAL_EXPONENTS(1.E0,0.E0,0.E0,0.E0,0.E0,0.E0,0.E0);
#300=(LENGTH_UNIT()NAMED_UNIT(*)SI_UNIT(.MILLI.,.METRE.));
#301=LENGTH_MEASURE_WITH_UNIT(LENGTH_MEASURE(2.54E1),#300);
#302=(CONVERSION_BASED_UNIT('INCH',#301)LENGTH_UNIT()NAMED_UNIT(#299));
#303=DIMENSIONAL_EXPONENTS(0.E0,0.E0,0.E0,0.E0,0.E0,0.E0,0.E0);
#304=(NAMED_UNIT(*)PLANE_ANGLE_UNIT()SI_UNIT($,.RADIAN.));
#305=PLANE_ANGLE_MEASURE_WITH_UNIT(PLANE_ANGLE_MEASURE(1.745329251994E-2),#304);
#306=(CONVERSION_BASED_UNIT('DEGREE',#305)NAMED_UNIT(#303)PLANE_ANGLE_UNIT());
#307=(NAMED_UNIT(*)SI_UNIT($,.STERADIAN.)SOLID_ANGLE_UNIT());
#308=UNCERTAINTY_MEASURE_WITH_UNIT(LENGTH_MEASURE(1.966663928135E-4),#302,
'closure',
'Maximum model space distance between geometric entities at asserted connectivities');
#309=(GEOMETRIC_REPRESENTATION_CONTEXT(3)GLOBAL_UNCERTAINTY_ASSIGNED_CONTEXT((
#308))GLOBAL_UNIT_ASSIGNED_CONTEXT((#302,#306,#307))REPRESENTATION_CONTEXT
('ID1','3'));
#311=APPLICATION_CONTEXT(
'CONFIGURATION CONTROLLED 3D DESIGNS OF MECHANICAL PARTS AND ASSEMBLIES');
#312=APPLICATION_PROTOCOL_DEFINITION('international standard',
'config_control_design',1994,#311);
#313=DESIGN_CONTEXT('',#311,'design');
#314=MECHANICAL_CONTEXT('',#311,'mechanical');
#315=PRODUCT('158500_SW','158500_SW','NOT SPECIFIED',(#314));
#316=PRODUCT_DEFINITION_FORMATION_WITH_SPECIFIED_SOURCE('','LAST_VERSION',#315,
.MADE.);
#320=PRODUCT_CATEGORY('part','');
#321=PRODUCT_RELATED_PRODUCT_CATEGORY('detail','',(#315));
#322=PRODUCT_CATEGORY_RELATIONSHIP('','',#320,#321);
#323=SECURITY_CLASSIFICATION_LEVEL('unclassified');
#324=SECURITY_CLASSIFICATION('','',#323);
#325=CC_DESIGN_SECURITY_CLASSIFICATION(#324,(#316));
#326=APPROVAL_STATUS('approved');
#327=APPROVAL(#326,'');
#328=CC_DESIGN_APPROVAL(#327,(#324,#316,#317));
#329=CALENDAR_DATE(111,6,10);
#330=COORDINATED_UNIVERSAL_TIME_OFFSET(5,0,.BEHIND.);
#331=LOCAL_TIME(12,41,1.4E1,#330);
#332=DATE_AND_TIME(#329,#331);
#333=APPROVAL_DATE_TIME(#332,#327);
#334=DATE_TIME_ROLE('creation_date');
#335=CC_DESIGN_DATE_AND_TIME_ASSIGNMENT(#332,#334,(#317));
#336=DATE_TIME_ROLE('classification_date');
#337=CC_DESIGN_DATE_AND_TIME_ASSIGNMENT(#332,#336,(#324));
#338=PERSON('UNSPECIFIED','UNSPECIFIED',$,$,$,$);
#339=ORGANIZATION('UNSPECIFIED','UNSPECIFIED','UNSPECIFIED');
#340=PERSON_AND_ORGANIZATION(#338,#339);
#341=APPROVAL_ROLE('approver');
#342=APPROVAL_PERSON_ORGANIZATION(#340,#327,#341);
#343=PERSON_AND_ORGANIZATION_ROLE('creator');
#344=CC_DESIGN_PERSON_AND_ORGANIZATION_ASSIGNMENT(#340,#343,(#316,#317));
#345=PERSON_AND_ORGANIZATION_ROLE('design_supplier');
#346=CC_DESIGN_PERSON_AND_ORGANIZATION_ASSIGNMENT(#340,#345,(#316));
#347=PERSON_AND_ORGANIZATION_ROLE('classification_officer');
#348=CC_DESIGN_PERSON_AND_ORGANIZATION_ASSIGNMENT(#340,#347,(#324));
#349=PERSON_AND_ORGANIZATION_ROLE('design_owner');
#350=CC_DESIGN_PERSON_AND_ORGANIZATION_ASSIGNMENT(#340,#349,(#315));
#21=CIRCLE('',#20,6.889763779528E-2);
#26=CIRCLE('',#25,6.889763779528E-2);
#31=CIRCLE('',#30,6.889763779528E-2);
#36=CIRCLE('',#35,6.889763779528E-2);
#73=CIRCLE('',#72,6.889763779528E-2);
#78=CIRCLE('',#77,6.889763779528E-2);
#83=CIRCLE('',#82,6.889763779528E-2);
#88=CIRCLE('',#87,6.889763779528E-2);
#142=EDGE_CURVE('',#107,#108,#4,.T.);
#144=EDGE_CURVE('',#108,#110,#8,.T.);
#146=EDGE_CURVE('',#110,#112,#12,.T.);
#148=EDGE_CURVE('',#112,#107,#16,.T.);
#152=EDGE_CURVE('',#123,#124,#21,.T.);
#154=EDGE_CURVE('',#124,#123,#26,.T.);
#158=EDGE_CURVE('',#127,#128,#31,.T.);
#160=EDGE_CURVE('',#128,#127,#36,.T.);
#171=EDGE_CURVE('',#107,#115,#40,.T.);
#173=EDGE_CURVE('',#115,#116,#56,.T.);
#175=EDGE_CURVE('',#108,#116,#52,.T.);
#186=EDGE_CURVE('',#112,#120,#44,.T.);
#188=EDGE_CURVE('',#120,#115,#60,.T.);
#200=EDGE_CURVE('',#110,#118,#48,.T.);
#202=EDGE_CURVE('',#118,#120,#64,.T.);
#215=EDGE_CURVE('',#116,#118,#68,.T.);
#232=EDGE_CURVE('',#131,#132,#73,.T.);
#234=EDGE_CURVE('',#132,#131,#78,.T.);
#238=EDGE_CURVE('',#135,#136,#83,.T.);
#240=EDGE_CURVE('',#136,#135,#88,.T.);
#251=EDGE_CURVE('',#132,#124,#96,.T.);
#254=EDGE_CURVE('',#131,#123,#92,.T.);
#277=EDGE_CURVE('',#136,#128,#104,.T.);
#280=EDGE_CURVE('',#135,#127,#100,.T.);
#310=ADVANCED_BREP_SHAPE_REPRESENTATION('',(#298),#309);
#317=PRODUCT_DEFINITION('design','',#316,#313);
#318=PRODUCT_DEFINITION_SHAPE('','SHAPE FOR 158500_SW.',#317);
#319=SHAPE_DEFINITION_REPRESENTATION(#318,#310);
ENDSEC;
END-ISO-10303-21;
