ISO-10303-21;
HEADER;
FILE_DESCRIPTION((''),'2;1');
FILE_NAME('158493_SW','2011-10-06T',('banengservice'),('BANNER ENGINEERING'),
'PRO/ENGINEER BY PARAMETRIC TECHNOLOGY CORPORATION, 2009141',
'PRO/ENGINEER BY PARAMETRIC TECHNOLOGY CORPORATION, 2009141','');
FILE_SCHEMA(('CONFIG_CONTROL_DESIGN'));
ENDSEC;
DATA;
#1=DIRECTION('',(0.E0,-1.E0,0.E0));
#2=VECTOR('',#1,1.653543307087E0);
#3=CARTESIAN_POINT('',(-6.889763779528E-1,1.338582677165E0,0.E0));
#4=LINE('',#3,#2);
#5=DIRECTION('',(1.E0,0.E0,0.E0));
#6=VECTOR('',#5,1.377952755906E0);
#7=CARTESIAN_POINT('',(-6.889763779528E-1,-3.149606299213E-1,0.E0));
#8=LINE('',#7,#6);
#9=DIRECTION('',(0.E0,1.E0,0.E0));
#10=VECTOR('',#9,1.653543307087E0);
#11=CARTESIAN_POINT('',(6.889763779528E-1,-3.149606299213E-1,0.E0));
#12=LINE('',#11,#10);
#13=DIRECTION('',(-1.E0,0.E0,0.E0));
#14=VECTOR('',#13,1.377952755906E0);
#15=CARTESIAN_POINT('',(6.889763779528E-1,1.338582677165E0,0.E0));
#16=LINE('',#15,#14);
#17=CARTESIAN_POINT('',(-4.921259842520E-1,-1.574803149606E-1,0.E0));
#18=DIRECTION('',(0.E0,0.E0,-1.E0));
#19=DIRECTION('',(1.E0,0.E0,0.E0));
#20=AXIS2_PLACEMENT_3D('',#17,#18,#19);
#22=CARTESIAN_POINT('',(-4.921259842520E-1,-1.574803149606E-1,0.E0));
#23=DIRECTION('',(0.E0,0.E0,-1.E0));
#24=DIRECTION('',(-1.E0,0.E0,0.E0));
#25=AXIS2_PLACEMENT_3D('',#22,#23,#24);
#27=CARTESIAN_POINT('',(4.921259842520E-1,-1.574803149606E-1,0.E0));
#28=DIRECTION('',(0.E0,0.E0,-1.E0));
#29=DIRECTION('',(1.E0,0.E0,0.E0));
#30=AXIS2_PLACEMENT_3D('',#27,#28,#29);
#32=CARTESIAN_POINT('',(4.921259842520E-1,-1.574803149606E-1,0.E0));
#33=DIRECTION('',(0.E0,0.E0,-1.E0));
#34=DIRECTION('',(-1.E0,0.E0,0.E0));
#35=AXIS2_PLACEMENT_3D('',#32,#33,#34);
#37=DIRECTION('',(0.E0,0.E0,1.E0));
#38=VECTOR('',#37,3.385826771654E-1);
#39=CARTESIAN_POINT('',(6.889763779528E-1,1.338582677165E0,0.E0));
#40=LINE('',#39,#38);
#41=DIRECTION('',(0.E0,0.E0,-1.E0));
#42=VECTOR('',#41,3.385826771654E-1);
#43=CARTESIAN_POINT('',(-6.889763779528E-1,1.338582677165E0,3.385826771654E-1));
#44=LINE('',#43,#42);
#45=DIRECTION('',(0.E0,0.E0,1.E0));
#46=VECTOR('',#45,7.480314960630E-2);
#47=CARTESIAN_POINT('',(6.889763779528E-1,0.E0,2.637795275591E-1));
#48=LINE('',#47,#46);
#49=DIRECTION('',(0.E0,0.E0,1.E0));
#50=VECTOR('',#49,2.637795275591E-1);
#51=CARTESIAN_POINT('',(6.889763779528E-1,-3.149606299213E-1,0.E0));
#52=LINE('',#51,#50);
#53=DIRECTION('',(1.E0,0.E0,0.E0));
#54=VECTOR('',#53,1.377952755906E0);
#55=CARTESIAN_POINT('',(-6.889763779528E-1,0.E0,2.637795275591E-1));
#56=LINE('',#55,#54);
#57=DIRECTION('',(0.E0,1.E0,0.E0));
#58=VECTOR('',#57,3.149606299213E-1);
#59=CARTESIAN_POINT('',(6.889763779528E-1,-3.149606299213E-1,
2.637795275591E-1));
#60=LINE('',#59,#58);
#61=DIRECTION('',(1.E0,0.E0,0.E0));
#62=VECTOR('',#61,1.377952755906E0);
#63=CARTESIAN_POINT('',(-6.889763779528E-1,-3.149606299213E-1,
2.637795275591E-1));
#64=LINE('',#63,#62);
#65=DIRECTION('',(0.E0,-1.E0,0.E0));
#66=VECTOR('',#65,3.149606299213E-1);
#67=CARTESIAN_POINT('',(-6.889763779528E-1,0.E0,2.637795275591E-1));
#68=LINE('',#67,#66);
#69=CARTESIAN_POINT('',(-4.921259842520E-1,-1.574803149606E-1,
2.637795275591E-1));
#70=DIRECTION('',(0.E0,0.E0,-1.E0));
#71=DIRECTION('',(1.E0,0.E0,0.E0));
#72=AXIS2_PLACEMENT_3D('',#69,#70,#71);
#74=CARTESIAN_POINT('',(-4.921259842520E-1,-1.574803149606E-1,
2.637795275591E-1));
#75=DIRECTION('',(0.E0,0.E0,-1.E0));
#76=DIRECTION('',(-1.E0,0.E0,0.E0));
#77=AXIS2_PLACEMENT_3D('',#74,#75,#76);
#79=CARTESIAN_POINT('',(4.921259842520E-1,-1.574803149606E-1,
2.637795275591E-1));
#80=DIRECTION('',(0.E0,0.E0,-1.E0));
#81=DIRECTION('',(1.E0,0.E0,0.E0));
#82=AXIS2_PLACEMENT_3D('',#79,#80,#81);
#84=CARTESIAN_POINT('',(4.921259842520E-1,-1.574803149606E-1,
2.637795275591E-1));
#85=DIRECTION('',(0.E0,0.E0,-1.E0));
#86=DIRECTION('',(-1.E0,0.E0,0.E0));
#87=AXIS2_PLACEMENT_3D('',#84,#85,#86);
#89=DIRECTION('',(0.E0,0.E0,1.E0));
#90=VECTOR('',#89,7.480314960630E-2);
#91=CARTESIAN_POINT('',(-6.889763779528E-1,0.E0,2.637795275591E-1));
#92=LINE('',#91,#90);
#93=DIRECTION('',(0.E0,-1.E0,0.E0));
#94=VECTOR('',#93,1.338582677165E0);
#95=CARTESIAN_POINT('',(-6.889763779528E-1,1.338582677165E0,3.385826771654E-1));
#96=LINE('',#95,#94);
#97=DIRECTION('',(-1.E0,0.E0,0.E0));
#98=VECTOR('',#97,1.377952755906E0);
#99=CARTESIAN_POINT('',(6.889763779528E-1,1.338582677165E0,3.385826771654E-1));
#100=LINE('',#99,#98);
#101=DIRECTION('',(0.E0,1.E0,0.E0));
#102=VECTOR('',#101,1.338582677165E0);
#103=CARTESIAN_POINT('',(6.889763779528E-1,0.E0,3.385826771654E-1));
#104=LINE('',#103,#102);
#105=DIRECTION('',(1.E0,0.E0,0.E0));
#106=VECTOR('',#105,1.377952755906E0);
#107=CARTESIAN_POINT('',(-6.889763779528E-1,0.E0,3.385826771654E-1));
#108=LINE('',#107,#106);
#109=DIRECTION('',(0.E0,-1.E0,0.E0));
#110=VECTOR('',#109,1.259842519685E0);
#111=CARTESIAN_POINT('',(-6.299212598425E-1,1.299212598425E0,
3.385826771654E-1));
#112=LINE('',#111,#110);
#113=DIRECTION('',(1.E0,0.E0,0.E0));
#114=VECTOR('',#113,1.259842519685E0);
#115=CARTESIAN_POINT('',(-6.299212598425E-1,3.937007874016E-2,
3.385826771654E-1));
#116=LINE('',#115,#114);
#117=DIRECTION('',(0.E0,1.E0,0.E0));
#118=VECTOR('',#117,1.259842519685E0);
#119=CARTESIAN_POINT('',(6.299212598425E-1,3.937007874016E-2,
3.385826771654E-1));
#120=LINE('',#119,#118);
#121=DIRECTION('',(-1.E0,0.E0,0.E0));
#122=VECTOR('',#121,1.259842519685E0);
#123=CARTESIAN_POINT('',(6.299212598425E-1,1.299212598425E0,3.385826771654E-1));
#124=LINE('',#123,#122);
#125=DIRECTION('',(0.E0,0.E0,-1.E0));
#126=VECTOR('',#125,7.874015748031E-3);
#127=CARTESIAN_POINT('',(-6.299212598425E-1,1.299212598425E0,
3.385826771654E-1));
#128=LINE('',#127,#126);
#129=DIRECTION('',(0.E0,0.E0,-1.E0));
#130=VECTOR('',#129,7.874015748031E-3);
#131=CARTESIAN_POINT('',(6.299212598425E-1,1.299212598425E0,3.385826771654E-1));
#132=LINE('',#131,#130);
#133=DIRECTION('',(0.E0,0.E0,-1.E0));
#134=VECTOR('',#133,7.874015748031E-3);
#135=CARTESIAN_POINT('',(6.299212598425E-1,3.937007874016E-2,
3.385826771654E-1));
#136=LINE('',#135,#134);
#137=DIRECTION('',(0.E0,0.E0,-1.E0));
#138=VECTOR('',#137,7.874015748031E-3);
#139=CARTESIAN_POINT('',(-6.299212598425E-1,3.937007874016E-2,
3.385826771654E-1));
#140=LINE('',#139,#138);
#141=DIRECTION('',(0.E0,-1.E0,0.E0));
#142=VECTOR('',#141,1.259842519685E0);
#143=CARTESIAN_POINT('',(-6.299212598425E-1,1.299212598425E0,
3.307086614173E-1));
#144=LINE('',#143,#142);
#145=DIRECTION('',(-1.E0,0.E0,0.E0));
#146=VECTOR('',#145,1.259842519685E0);
#147=CARTESIAN_POINT('',(6.299212598425E-1,1.299212598425E0,3.307086614173E-1));
#148=LINE('',#147,#146);
#149=DIRECTION('',(0.E0,1.E0,0.E0));
#150=VECTOR('',#149,1.259842519685E0);
#151=CARTESIAN_POINT('',(6.299212598425E-1,3.937007874016E-2,
3.307086614173E-1));
#152=LINE('',#151,#150);
#153=DIRECTION('',(1.E0,0.E0,0.E0));
#154=VECTOR('',#153,1.259842519685E0);
#155=CARTESIAN_POINT('',(-6.299212598425E-1,3.937007874016E-2,
3.307086614173E-1));
#156=LINE('',#155,#154);
#157=DIRECTION('',(0.E0,0.E0,1.E0));
#158=VECTOR('',#157,2.637795275591E-1);
#159=CARTESIAN_POINT('',(-6.889763779528E-1,-3.149606299213E-1,0.E0));
#160=LINE('',#159,#158);
#161=DIRECTION('',(0.E0,0.E0,1.E0));
#162=VECTOR('',#161,2.637795275591E-1);
#163=CARTESIAN_POINT('',(-4.251968503937E-1,-1.574803149606E-1,0.E0));
#164=LINE('',#163,#162);
#165=DIRECTION('',(0.E0,0.E0,1.E0));
#166=VECTOR('',#165,2.637795275591E-1);
#167=CARTESIAN_POINT('',(-5.590551181102E-1,-1.574803149606E-1,0.E0));
#168=LINE('',#167,#166);
#169=DIRECTION('',(0.E0,0.E0,1.E0));
#170=VECTOR('',#169,2.637795275591E-1);
#171=CARTESIAN_POINT('',(5.590551181102E-1,-1.574803149606E-1,0.E0));
#172=LINE('',#171,#170);
#173=DIRECTION('',(0.E0,0.E0,1.E0));
#174=VECTOR('',#173,2.637795275591E-1);
#175=CARTESIAN_POINT('',(4.251968503937E-1,-1.574803149606E-1,0.E0));
#176=LINE('',#175,#174);
#177=CARTESIAN_POINT('',(-6.889763779528E-1,1.338582677165E0,0.E0));
#178=CARTESIAN_POINT('',(-6.889763779528E-1,-3.149606299213E-1,0.E0));
#179=VERTEX_POINT('',#177);
#180=VERTEX_POINT('',#178);
#181=CARTESIAN_POINT('',(6.889763779528E-1,-3.149606299213E-1,0.E0));
#182=VERTEX_POINT('',#181);
#183=CARTESIAN_POINT('',(6.889763779528E-1,1.338582677165E0,0.E0));
#184=VERTEX_POINT('',#183);
#185=CARTESIAN_POINT('',(-6.889763779528E-1,-3.149606299213E-1,
2.637795275591E-1));
#186=CARTESIAN_POINT('',(6.889763779528E-1,-3.149606299213E-1,
2.637795275591E-1));
#187=VERTEX_POINT('',#185);
#188=VERTEX_POINT('',#186);
#189=CARTESIAN_POINT('',(-6.889763779528E-1,1.338582677165E0,
3.385826771654E-1));
#190=CARTESIAN_POINT('',(-6.889763779528E-1,0.E0,3.385826771654E-1));
#191=VERTEX_POINT('',#189);
#192=VERTEX_POINT('',#190);
#193=CARTESIAN_POINT('',(6.889763779528E-1,0.E0,3.385826771654E-1));
#194=VERTEX_POINT('',#193);
#195=CARTESIAN_POINT('',(6.889763779528E-1,1.338582677165E0,3.385826771654E-1));
#196=VERTEX_POINT('',#195);
#197=CARTESIAN_POINT('',(-6.889763779528E-1,0.E0,2.637795275591E-1));
#198=CARTESIAN_POINT('',(6.889763779528E-1,0.E0,2.637795275591E-1));
#199=VERTEX_POINT('',#197);
#200=VERTEX_POINT('',#198);
#201=CARTESIAN_POINT('',(-6.299212598425E-1,1.299212598425E0,
3.307086614173E-1));
#202=CARTESIAN_POINT('',(-6.299212598425E-1,3.937007874016E-2,
3.307086614173E-1));
#203=VERTEX_POINT('',#201);
#204=VERTEX_POINT('',#202);
#205=CARTESIAN_POINT('',(6.299212598425E-1,3.937007874016E-2,
3.307086614173E-1));
#206=VERTEX_POINT('',#205);
#207=CARTESIAN_POINT('',(6.299212598425E-1,1.299212598425E0,3.307086614173E-1));
#208=VERTEX_POINT('',#207);
#209=CARTESIAN_POINT('',(-6.299212598425E-1,1.299212598425E0,
3.385826771654E-1));
#210=CARTESIAN_POINT('',(-6.299212598425E-1,3.937007874016E-2,
3.385826771654E-1));
#211=VERTEX_POINT('',#209);
#212=VERTEX_POINT('',#210);
#213=CARTESIAN_POINT('',(6.299212598425E-1,3.937007874016E-2,
3.385826771654E-1));
#214=VERTEX_POINT('',#213);
#215=CARTESIAN_POINT('',(6.299212598425E-1,1.299212598425E0,3.385826771654E-1));
#216=VERTEX_POINT('',#215);
#217=CARTESIAN_POINT('',(-4.251968503937E-1,-1.574803149606E-1,0.E0));
#218=CARTESIAN_POINT('',(-5.590551181102E-1,-1.574803149606E-1,0.E0));
#219=VERTEX_POINT('',#217);
#220=VERTEX_POINT('',#218);
#221=CARTESIAN_POINT('',(5.590551181102E-1,-1.574803149606E-1,0.E0));
#222=CARTESIAN_POINT('',(4.251968503937E-1,-1.574803149606E-1,0.E0));
#223=VERTEX_POINT('',#221);
#224=VERTEX_POINT('',#222);
#225=CARTESIAN_POINT('',(-4.251968503937E-1,-1.574803149606E-1,
2.637795275591E-1));
#226=CARTESIAN_POINT('',(-5.590551181102E-1,-1.574803149606E-1,
2.637795275591E-1));
#227=VERTEX_POINT('',#225);
#228=VERTEX_POINT('',#226);
#229=CARTESIAN_POINT('',(5.590551181102E-1,-1.574803149606E-1,
2.637795275591E-1));
#230=CARTESIAN_POINT('',(4.251968503937E-1,-1.574803149606E-1,
2.637795275591E-1));
#231=VERTEX_POINT('',#229);
#232=VERTEX_POINT('',#230);
#233=CARTESIAN_POINT('',(0.E0,0.E0,0.E0));
#234=DIRECTION('',(0.E0,0.E0,1.E0));
#235=DIRECTION('',(1.E0,0.E0,0.E0));
#236=AXIS2_PLACEMENT_3D('',#233,#234,#235);
#237=PLANE('',#236);
#239=ORIENTED_EDGE('',*,*,#238,.T.);
#241=ORIENTED_EDGE('',*,*,#240,.T.);
#243=ORIENTED_EDGE('',*,*,#242,.T.);
#245=ORIENTED_EDGE('',*,*,#244,.T.);
#246=EDGE_LOOP('',(#239,#241,#243,#245));
#247=FACE_OUTER_BOUND('',#246,.F.);
#249=ORIENTED_EDGE('',*,*,#248,.T.);
#251=ORIENTED_EDGE('',*,*,#250,.T.);
#252=EDGE_LOOP('',(#249,#251));
#253=FACE_BOUND('',#252,.F.);
#255=ORIENTED_EDGE('',*,*,#254,.T.);
#257=ORIENTED_EDGE('',*,*,#256,.T.);
#258=EDGE_LOOP('',(#255,#257));
#259=FACE_BOUND('',#258,.F.);
#260=ADVANCED_FACE('',(#247,#253,#259),#237,.F.);
#261=CARTESIAN_POINT('',(-6.889763779528E-1,1.338582677165E0,0.E0));
#262=DIRECTION('',(-1.E0,0.E0,0.E0));
#263=DIRECTION('',(0.E0,-1.E0,0.E0));
#264=AXIS2_PLACEMENT_3D('',#261,#262,#263);
#265=PLANE('',#264);
#267=ORIENTED_EDGE('',*,*,#266,.F.);
#269=ORIENTED_EDGE('',*,*,#268,.T.);
#271=ORIENTED_EDGE('',*,*,#270,.F.);
#273=ORIENTED_EDGE('',*,*,#272,.T.);
#275=ORIENTED_EDGE('',*,*,#274,.F.);
#276=ORIENTED_EDGE('',*,*,#238,.F.);
#277=EDGE_LOOP('',(#267,#269,#271,#273,#275,#276));
#278=FACE_OUTER_BOUND('',#277,.F.);
#279=ADVANCED_FACE('',(#278),#265,.T.);
#280=CARTESIAN_POINT('',(6.889763779528E-1,1.338582677165E0,0.E0));
#281=DIRECTION('',(0.E0,1.E0,0.E0));
#282=DIRECTION('',(-1.E0,0.E0,0.E0));
#283=AXIS2_PLACEMENT_3D('',#280,#281,#282);
#284=PLANE('',#283);
#286=ORIENTED_EDGE('',*,*,#285,.T.);
#288=ORIENTED_EDGE('',*,*,#287,.T.);
#289=ORIENTED_EDGE('',*,*,#266,.T.);
#290=ORIENTED_EDGE('',*,*,#244,.F.);
#291=EDGE_LOOP('',(#286,#288,#289,#290));
#292=FACE_OUTER_BOUND('',#291,.F.);
#293=ADVANCED_FACE('',(#292),#284,.T.);
#294=CARTESIAN_POINT('',(6.889763779528E-1,-3.149606299213E-1,0.E0));
#295=DIRECTION('',(1.E0,0.E0,0.E0));
#296=DIRECTION('',(0.E0,1.E0,0.E0));
#297=AXIS2_PLACEMENT_3D('',#294,#295,#296);
#298=PLANE('',#297);
#300=ORIENTED_EDGE('',*,*,#299,.T.);
#302=ORIENTED_EDGE('',*,*,#301,.T.);
#304=ORIENTED_EDGE('',*,*,#303,.T.);
#305=ORIENTED_EDGE('',*,*,#285,.F.);
#306=ORIENTED_EDGE('',*,*,#242,.F.);
#308=ORIENTED_EDGE('',*,*,#307,.T.);
#309=EDGE_LOOP('',(#300,#302,#304,#305,#306,#308));
#310=FACE_OUTER_BOUND('',#309,.F.);
#311=ADVANCED_FACE('',(#310),#298,.T.);
#312=CARTESIAN_POINT('',(0.E0,0.E0,2.637795275591E-1));
#313=DIRECTION('',(0.E0,0.E0,1.E0));
#314=DIRECTION('',(1.E0,0.E0,0.E0));
#315=AXIS2_PLACEMENT_3D('',#312,#313,#314);
#316=PLANE('',#315);
#318=ORIENTED_EDGE('',*,*,#317,.T.);
#319=ORIENTED_EDGE('',*,*,#299,.F.);
#321=ORIENTED_EDGE('',*,*,#320,.F.);
#322=ORIENTED_EDGE('',*,*,#272,.F.);
#323=EDGE_LOOP('',(#318,#319,#321,#322));
#324=FACE_OUTER_BOUND('',#323,.F.);
#326=ORIENTED_EDGE('',*,*,#325,.F.);
#328=ORIENTED_EDGE('',*,*,#327,.F.);
#329=EDGE_LOOP('',(#326,#328));
#330=FACE_BOUND('',#329,.F.);
#332=ORIENTED_EDGE('',*,*,#331,.F.);
#334=ORIENTED_EDGE('',*,*,#333,.F.);
#335=EDGE_LOOP('',(#332,#334));
#336=FACE_BOUND('',#335,.F.);
#337=ADVANCED_FACE('',(#324,#330,#336),#316,.T.);
#338=CARTESIAN_POINT('',(-6.889763779528E-1,0.E0,2.637795275591E-1));
#339=DIRECTION('',(0.E0,-1.E0,0.E0));
#340=DIRECTION('',(1.E0,0.E0,0.E0));
#341=AXIS2_PLACEMENT_3D('',#338,#339,#340);
#342=PLANE('',#341);
#343=ORIENTED_EDGE('',*,*,#317,.F.);
#344=ORIENTED_EDGE('',*,*,#270,.T.);
#346=ORIENTED_EDGE('',*,*,#345,.T.);
#347=ORIENTED_EDGE('',*,*,#301,.F.);
#348=EDGE_LOOP('',(#343,#344,#346,#347));
#349=FACE_OUTER_BOUND('',#348,.F.);
#350=ADVANCED_FACE('',(#349),#342,.T.);
#351=CARTESIAN_POINT('',(0.E0,0.E0,3.385826771654E-1));
#352=DIRECTION('',(0.E0,0.E0,1.E0));
#353=DIRECTION('',(1.E0,0.E0,0.E0));
#354=AXIS2_PLACEMENT_3D('',#351,#352,#353);
#355=PLANE('',#354);
#356=ORIENTED_EDGE('',*,*,#268,.F.);
#357=ORIENTED_EDGE('',*,*,#287,.F.);
#358=ORIENTED_EDGE('',*,*,#303,.F.);
#359=ORIENTED_EDGE('',*,*,#345,.F.);
#360=EDGE_LOOP('',(#356,#357,#358,#359));
#361=FACE_OUTER_BOUND('',#360,.F.);
#363=ORIENTED_EDGE('',*,*,#362,.T.);
#365=ORIENTED_EDGE('',*,*,#364,.T.);
#367=ORIENTED_EDGE('',*,*,#366,.T.);
#369=ORIENTED_EDGE('',*,*,#368,.T.);
#370=EDGE_LOOP('',(#363,#365,#367,#369));
#371=FACE_BOUND('',#370,.F.);
#372=ADVANCED_FACE('',(#361,#371),#355,.T.);
#373=CARTESIAN_POINT('',(-6.299212598425E-1,1.299212598425E0,
3.385826771654E-1));
#374=DIRECTION('',(-1.E0,0.E0,0.E0));
#375=DIRECTION('',(0.E0,-1.E0,0.E0));
#376=AXIS2_PLACEMENT_3D('',#373,#374,#375);
#377=PLANE('',#376);
#378=ORIENTED_EDGE('',*,*,#362,.F.);
#380=ORIENTED_EDGE('',*,*,#379,.T.);
#382=ORIENTED_EDGE('',*,*,#381,.T.);
#384=ORIENTED_EDGE('',*,*,#383,.F.);
#385=EDGE_LOOP('',(#378,#380,#382,#384));
#386=FACE_OUTER_BOUND('',#385,.F.);
#387=ADVANCED_FACE('',(#386),#377,.F.);
#388=CARTESIAN_POINT('',(6.299212598425E-1,1.299212598425E0,3.385826771654E-1));
#389=DIRECTION('',(0.E0,1.E0,0.E0));
#390=DIRECTION('',(-1.E0,0.E0,0.E0));
#391=AXIS2_PLACEMENT_3D('',#388,#389,#390);
#392=PLANE('',#391);
#393=ORIENTED_EDGE('',*,*,#368,.F.);
#395=ORIENTED_EDGE('',*,*,#394,.T.);
#397=ORIENTED_EDGE('',*,*,#396,.T.);
#398=ORIENTED_EDGE('',*,*,#379,.F.);
#399=EDGE_LOOP('',(#393,#395,#397,#398));
#400=FACE_OUTER_BOUND('',#399,.F.);
#401=ADVANCED_FACE('',(#400),#392,.F.);
#402=CARTESIAN_POINT('',(6.299212598425E-1,3.937007874016E-2,
3.385826771654E-1));
#403=DIRECTION('',(1.E0,0.E0,0.E0));
#404=DIRECTION('',(0.E0,1.E0,0.E0));
#405=AXIS2_PLACEMENT_3D('',#402,#403,#404);
#406=PLANE('',#405);
#407=ORIENTED_EDGE('',*,*,#366,.F.);
#409=ORIENTED_EDGE('',*,*,#408,.T.);
#411=ORIENTED_EDGE('',*,*,#410,.T.);
#412=ORIENTED_EDGE('',*,*,#394,.F.);
#413=EDGE_LOOP('',(#407,#409,#411,#412));
#414=FACE_OUTER_BOUND('',#413,.F.);
#415=ADVANCED_FACE('',(#414),#406,.F.);
#416=CARTESIAN_POINT('',(-6.299212598425E-1,3.937007874016E-2,
3.385826771654E-1));
#417=DIRECTION('',(0.E0,-1.E0,0.E0));
#418=DIRECTION('',(1.E0,0.E0,0.E0));
#419=AXIS2_PLACEMENT_3D('',#416,#417,#418);
#420=PLANE('',#419);
#421=ORIENTED_EDGE('',*,*,#364,.F.);
#422=ORIENTED_EDGE('',*,*,#383,.T.);
#424=ORIENTED_EDGE('',*,*,#423,.T.);
#425=ORIENTED_EDGE('',*,*,#408,.F.);
#426=EDGE_LOOP('',(#421,#422,#424,#425));
#427=FACE_OUTER_BOUND('',#426,.F.);
#428=ADVANCED_FACE('',(#427),#420,.F.);
#429=CARTESIAN_POINT('',(0.E0,0.E0,3.307086614173E-1));
#430=DIRECTION('',(0.E0,0.E0,1.E0));
#431=DIRECTION('',(1.E0,0.E0,0.E0));
#432=AXIS2_PLACEMENT_3D('',#429,#430,#431);
#433=PLANE('',#432);
#434=ORIENTED_EDGE('',*,*,#381,.F.);
#435=ORIENTED_EDGE('',*,*,#396,.F.);
#436=ORIENTED_EDGE('',*,*,#410,.F.);
#437=ORIENTED_EDGE('',*,*,#423,.F.);
#438=EDGE_LOOP('',(#434,#435,#436,#437));
#439=FACE_OUTER_BOUND('',#438,.F.);
#440=ADVANCED_FACE('',(#439),#433,.T.);
#441=CARTESIAN_POINT('',(-6.889763779528E-1,-3.149606299213E-1,0.E0));
#442=DIRECTION('',(0.E0,-1.E0,0.E0));
#443=DIRECTION('',(1.E0,0.E0,0.E0));
#444=AXIS2_PLACEMENT_3D('',#441,#442,#443);
#445=PLANE('',#444);
#446=ORIENTED_EDGE('',*,*,#240,.F.);
#447=ORIENTED_EDGE('',*,*,#274,.T.);
#448=ORIENTED_EDGE('',*,*,#320,.T.);
#449=ORIENTED_EDGE('',*,*,#307,.F.);
#450=EDGE_LOOP('',(#446,#447,#448,#449));
#451=FACE_OUTER_BOUND('',#450,.F.);
#452=ADVANCED_FACE('',(#451),#445,.T.);
#453=CARTESIAN_POINT('',(-4.921259842520E-1,-1.574803149606E-1,0.E0));
#454=DIRECTION('',(0.E0,0.E0,1.E0));
#455=DIRECTION('',(1.E0,0.E0,0.E0));
#456=AXIS2_PLACEMENT_3D('',#453,#454,#455);
#457=CYLINDRICAL_SURFACE('',#456,6.692913385827E-2);
#458=ORIENTED_EDGE('',*,*,#248,.F.);
#460=ORIENTED_EDGE('',*,*,#459,.T.);
#461=ORIENTED_EDGE('',*,*,#325,.T.);
#463=ORIENTED_EDGE('',*,*,#462,.F.);
#464=EDGE_LOOP('',(#458,#460,#461,#463));
#465=FACE_OUTER_BOUND('',#464,.F.);
#466=ADVANCED_FACE('',(#465),#457,.F.);
#467=CARTESIAN_POINT('',(-4.921259842520E-1,-1.574803149606E-1,0.E0));
#468=DIRECTION('',(0.E0,0.E0,1.E0));
#469=DIRECTION('',(1.E0,0.E0,0.E0));
#470=AXIS2_PLACEMENT_3D('',#467,#468,#469);
#471=CYLINDRICAL_SURFACE('',#470,6.692913385827E-2);
#472=ORIENTED_EDGE('',*,*,#250,.F.);
#473=ORIENTED_EDGE('',*,*,#462,.T.);
#474=ORIENTED_EDGE('',*,*,#327,.T.);
#475=ORIENTED_EDGE('',*,*,#459,.F.);
#476=EDGE_LOOP('',(#472,#473,#474,#475));
#477=FACE_OUTER_BOUND('',#476,.F.);
#478=ADVANCED_FACE('',(#477),#471,.F.);
#479=CARTESIAN_POINT('',(4.921259842520E-1,-1.574803149606E-1,0.E0));
#480=DIRECTION('',(0.E0,0.E0,1.E0));
#481=DIRECTION('',(1.E0,0.E0,0.E0));
#482=AXIS2_PLACEMENT_3D('',#479,#480,#481);
#483=CYLINDRICAL_SURFACE('',#482,6.692913385827E-2);
#484=ORIENTED_EDGE('',*,*,#254,.F.);
#486=ORIENTED_EDGE('',*,*,#485,.T.);
#487=ORIENTED_EDGE('',*,*,#331,.T.);
#489=ORIENTED_EDGE('',*,*,#488,.F.);
#490=EDGE_LOOP('',(#484,#486,#487,#489));
#491=FACE_OUTER_BOUND('',#490,.F.);
#492=ADVANCED_FACE('',(#491),#483,.F.);
#493=CARTESIAN_POINT('',(4.921259842520E-1,-1.574803149606E-1,0.E0));
#494=DIRECTION('',(0.E0,0.E0,1.E0));
#495=DIRECTION('',(1.E0,0.E0,0.E0));
#496=AXIS2_PLACEMENT_3D('',#493,#494,#495);
#497=CYLINDRICAL_SURFACE('',#496,6.692913385827E-2);
#498=ORIENTED_EDGE('',*,*,#256,.F.);
#499=ORIENTED_EDGE('',*,*,#488,.T.);
#500=ORIENTED_EDGE('',*,*,#333,.T.);
#501=ORIENTED_EDGE('',*,*,#485,.F.);
#502=EDGE_LOOP('',(#498,#499,#500,#501));
#503=FACE_OUTER_BOUND('',#502,.F.);
#504=ADVANCED_FACE('',(#503),#497,.F.);
#505=CLOSED_SHELL('',(#260,#279,#293,#311,#337,#350,#372,#387,#401,#415,#428,
#440,#452,#466,#478,#492,#504));
#506=MANIFOLD_SOLID_BREP('',#505);
#507=DIMENSIONAL_EXPONENTS(1.E0,0.E0,0.E0,0.E0,0.E0,0.E0,0.E0);
#508=(LENGTH_UNIT()NAMED_UNIT(*)SI_UNIT(.MILLI.,.METRE.));
#509=LENGTH_MEASURE_WITH_UNIT(LENGTH_MEASURE(2.54E1),#508);
#510=(CONVERSION_BASED_UNIT('INCH',#509)LENGTH_UNIT()NAMED_UNIT(#507));
#511=DIMENSIONAL_EXPONENTS(0.E0,0.E0,0.E0,0.E0,0.E0,0.E0,0.E0);
#512=(NAMED_UNIT(*)PLANE_ANGLE_UNIT()SI_UNIT($,.RADIAN.));
#513=PLANE_ANGLE_MEASURE_WITH_UNIT(PLANE_ANGLE_MEASURE(1.745329251994E-2),#512);
#514=(CONVERSION_BASED_UNIT('DEGREE',#513)NAMED_UNIT(#511)PLANE_ANGLE_UNIT());
#515=(NAMED_UNIT(*)SI_UNIT($,.STERADIAN.)SOLID_ANGLE_UNIT());
#516=UNCERTAINTY_MEASURE_WITH_UNIT(LENGTH_MEASURE(2.367579407385E-4),#510,
'closure',
'Maximum model space distance between geometric entities at asserted connectivities');
#517=(GEOMETRIC_REPRESENTATION_CONTEXT(3)GLOBAL_UNCERTAINTY_ASSIGNED_CONTEXT((
#516))GLOBAL_UNIT_ASSIGNED_CONTEXT((#510,#514,#515))REPRESENTATION_CONTEXT
('ID1','3'));
#519=APPLICATION_CONTEXT(
'CONFIGURATION CONTROLLED 3D DESIGNS OF MECHANICAL PARTS AND ASSEMBLIES');
#520=APPLICATION_PROTOCOL_DEFINITION('international standard',
'config_control_design',1994,#519);
#521=DESIGN_CONTEXT('',#519,'design');
#522=MECHANICAL_CONTEXT('',#519,'mechanical');
#523=PRODUCT('158493_SW','158493_SW','NOT SPECIFIED',(#522));
#524=PRODUCT_DEFINITION_FORMATION_WITH_SPECIFIED_SOURCE('','LAST_VERSION',#523,
.MADE.);
#528=PRODUCT_CATEGORY('part','');
#529=PRODUCT_RELATED_PRODUCT_CATEGORY('detail','',(#523));
#530=PRODUCT_CATEGORY_RELATIONSHIP('','',#528,#529);
#531=SECURITY_CLASSIFICATION_LEVEL('unclassified');
#532=SECURITY_CLASSIFICATION('','',#531);
#533=CC_DESIGN_SECURITY_CLASSIFICATION(#532,(#524));
#534=APPROVAL_STATUS('approved');
#535=APPROVAL(#534,'');
#536=CC_DESIGN_APPROVAL(#535,(#532,#524,#525));
#537=CALENDAR_DATE(111,6,10);
#538=COORDINATED_UNIVERSAL_TIME_OFFSET(5,0,.BEHIND.);
#539=LOCAL_TIME(12,36,4.5E1,#538);
#540=DATE_AND_TIME(#537,#539);
#541=APPROVAL_DATE_TIME(#540,#535);
#542=DATE_TIME_ROLE('creation_date');
#543=CC_DESIGN_DATE_AND_TIME_ASSIGNMENT(#540,#542,(#525));
#544=DATE_TIME_ROLE('classification_date');
#545=CC_DESIGN_DATE_AND_TIME_ASSIGNMENT(#540,#544,(#532));
#546=PERSON('UNSPECIFIED','UNSPECIFIED',$,$,$,$);
#547=ORGANIZATION('UNSPECIFIED','UNSPECIFIED','UNSPECIFIED');
#548=PERSON_AND_ORGANIZATION(#546,#547);
#549=APPROVAL_ROLE('approver');
#550=APPROVAL_PERSON_ORGANIZATION(#548,#535,#549);
#551=PERSON_AND_ORGANIZATION_ROLE('creator');
#552=CC_DESIGN_PERSON_AND_ORGANIZATION_ASSIGNMENT(#548,#551,(#524,#525));
#553=PERSON_AND_ORGANIZATION_ROLE('design_supplier');
#554=CC_DESIGN_PERSON_AND_ORGANIZATION_ASSIGNMENT(#548,#553,(#524));
#555=PERSON_AND_ORGANIZATION_ROLE('classification_officer');
#556=CC_DESIGN_PERSON_AND_ORGANIZATION_ASSIGNMENT(#548,#555,(#532));
#557=PERSON_AND_ORGANIZATION_ROLE('design_owner');
#558=CC_DESIGN_PERSON_AND_ORGANIZATION_ASSIGNMENT(#548,#557,(#523));
#21=CIRCLE('',#20,6.692913385827E-2);
#26=CIRCLE('',#25,6.692913385827E-2);
#31=CIRCLE('',#30,6.692913385827E-2);
#36=CIRCLE('',#35,6.692913385827E-2);
#73=CIRCLE('',#72,6.692913385827E-2);
#78=CIRCLE('',#77,6.692913385827E-2);
#83=CIRCLE('',#82,6.692913385827E-2);
#88=CIRCLE('',#87,6.692913385827E-2);
#238=EDGE_CURVE('',#179,#180,#4,.T.);
#240=EDGE_CURVE('',#180,#182,#8,.T.);
#242=EDGE_CURVE('',#182,#184,#12,.T.);
#244=EDGE_CURVE('',#184,#179,#16,.T.);
#248=EDGE_CURVE('',#219,#220,#21,.T.);
#250=EDGE_CURVE('',#220,#219,#26,.T.);
#254=EDGE_CURVE('',#223,#224,#31,.T.);
#256=EDGE_CURVE('',#224,#223,#36,.T.);
#266=EDGE_CURVE('',#191,#179,#44,.T.);
#268=EDGE_CURVE('',#191,#192,#96,.T.);
#270=EDGE_CURVE('',#199,#192,#92,.T.);
#272=EDGE_CURVE('',#199,#187,#68,.T.);
#274=EDGE_CURVE('',#180,#187,#160,.T.);
#285=EDGE_CURVE('',#184,#196,#40,.T.);
#287=EDGE_CURVE('',#196,#191,#100,.T.);
#299=EDGE_CURVE('',#188,#200,#60,.T.);
#301=EDGE_CURVE('',#200,#194,#48,.T.);
#303=EDGE_CURVE('',#194,#196,#104,.T.);
#307=EDGE_CURVE('',#182,#188,#52,.T.);
#317=EDGE_CURVE('',#199,#200,#56,.T.);
#320=EDGE_CURVE('',#187,#188,#64,.T.);
#325=EDGE_CURVE('',#227,#228,#73,.T.);
#327=EDGE_CURVE('',#228,#227,#78,.T.);
#331=EDGE_CURVE('',#231,#232,#83,.T.);
#333=EDGE_CURVE('',#232,#231,#88,.T.);
#345=EDGE_CURVE('',#192,#194,#108,.T.);
#362=EDGE_CURVE('',#211,#212,#112,.T.);
#364=EDGE_CURVE('',#212,#214,#116,.T.);
#366=EDGE_CURVE('',#214,#216,#120,.T.);
#368=EDGE_CURVE('',#216,#211,#124,.T.);
#379=EDGE_CURVE('',#211,#203,#128,.T.);
#381=EDGE_CURVE('',#203,#204,#144,.T.);
#383=EDGE_CURVE('',#212,#204,#140,.T.);
#394=EDGE_CURVE('',#216,#208,#132,.T.);
#396=EDGE_CURVE('',#208,#203,#148,.T.);
#408=EDGE_CURVE('',#214,#206,#136,.T.);
#410=EDGE_CURVE('',#206,#208,#152,.T.);
#423=EDGE_CURVE('',#204,#206,#156,.T.);
#459=EDGE_CURVE('',#219,#227,#164,.T.);
#462=EDGE_CURVE('',#220,#228,#168,.T.);
#485=EDGE_CURVE('',#223,#231,#172,.T.);
#488=EDGE_CURVE('',#224,#232,#176,.T.);
#518=ADVANCED_BREP_SHAPE_REPRESENTATION('',(#506),#517);
#525=PRODUCT_DEFINITION('design','',#524,#521);
#526=PRODUCT_DEFINITION_SHAPE('','SHAPE FOR 158493_SW.',#525);
#527=SHAPE_DEFINITION_REPRESENTATION(#526,#518);
ENDSEC;
END-ISO-10303-21;
