ISO-10303-21;
HEADER;
FILE_DESCRIPTION((''),'2;1');
FILE_NAME('158489_SW','2011-10-06T',('banengservice'),('BANNER ENGINEERING'),
'PRO/ENGINEER BY PARAMETRIC TECHNOLOGY CORPORATION, 2009141',
'PRO/ENGINEER BY PARAMETRIC TECHNOLOGY CORPORATION, 2009141','');
FILE_SCHEMA(('CONFIG_CONTROL_DESIGN'));
ENDSEC;
DATA;
#1=CARTESIAN_POINT('',(0.E0,0.E0,0.E0));
#2=DIRECTION('',(0.E0,0.E0,1.E0));
#3=DIRECTION('',(0.E0,1.E0,0.E0));
#4=AXIS2_PLACEMENT_3D('',#1,#2,#3);
#6=DIRECTION('',(0.E0,0.E0,1.E0));
#7=VECTOR('',#6,1.968503937008E-1);
#8=CARTESIAN_POINT('',(0.E0,6.791338582677E-1,0.E0));
#9=LINE('',#8,#7);
#10=CARTESIAN_POINT('',(0.E0,0.E0,0.E0));
#11=DIRECTION('',(0.E0,0.E0,-1.E0));
#12=DIRECTION('',(0.E0,1.E0,0.E0));
#13=AXIS2_PLACEMENT_3D('',#10,#11,#12);
#15=DIRECTION('',(0.E0,0.E0,1.E0));
#16=VECTOR('',#15,1.968503937008E-1);
#17=CARTESIAN_POINT('',(0.E0,-6.791338582677E-1,0.E0));
#18=LINE('',#17,#16);
#19=CARTESIAN_POINT('',(0.E0,0.E0,0.E0));
#20=DIRECTION('',(0.E0,0.E0,-1.E0));
#21=DIRECTION('',(-1.E0,0.E0,0.E0));
#22=AXIS2_PLACEMENT_3D('',#19,#20,#21);
#24=CARTESIAN_POINT('',(0.E0,0.E0,0.E0));
#25=DIRECTION('',(0.E0,0.E0,-1.E0));
#26=DIRECTION('',(1.E0,0.E0,0.E0));
#27=AXIS2_PLACEMENT_3D('',#24,#25,#26);
#29=DIRECTION('',(0.E0,0.E0,-1.E0));
#30=VECTOR('',#29,3.937007874016E-2);
#31=CARTESIAN_POINT('',(-5.905511811024E-1,0.E0,0.E0));
#32=LINE('',#31,#30);
#33=DIRECTION('',(0.E0,0.E0,-1.E0));
#34=VECTOR('',#33,3.937007874016E-2);
#35=CARTESIAN_POINT('',(5.905511811024E-1,0.E0,0.E0));
#36=LINE('',#35,#34);
#37=CARTESIAN_POINT('',(0.E0,0.E0,-3.937007874016E-2));
#38=DIRECTION('',(0.E0,0.E0,-1.E0));
#39=DIRECTION('',(-1.E0,0.E0,0.E0));
#40=AXIS2_PLACEMENT_3D('',#37,#38,#39);
#42=CARTESIAN_POINT('',(0.E0,0.E0,-3.937007874016E-2));
#43=DIRECTION('',(0.E0,0.E0,-1.E0));
#44=DIRECTION('',(1.E0,0.E0,0.E0));
#45=AXIS2_PLACEMENT_3D('',#42,#43,#44);
#47=CARTESIAN_POINT('',(0.E0,0.E0,1.968503937008E-1));
#48=DIRECTION('',(0.E0,0.E0,-1.E0));
#49=DIRECTION('',(0.E0,1.E0,0.E0));
#50=AXIS2_PLACEMENT_3D('',#47,#48,#49);
#52=CARTESIAN_POINT('',(0.E0,0.E0,1.968503937008E-1));
#53=DIRECTION('',(0.E0,0.E0,1.E0));
#54=DIRECTION('',(0.E0,1.E0,0.E0));
#55=AXIS2_PLACEMENT_3D('',#52,#53,#54);
#57=CARTESIAN_POINT('',(0.E0,0.E0,1.968503937008E-1));
#58=DIRECTION('',(0.E0,0.E0,1.E0));
#59=DIRECTION('',(0.E0,1.E0,0.E0));
#60=AXIS2_PLACEMENT_3D('',#57,#58,#59);
#62=DIRECTION('',(0.E0,0.E0,1.E0));
#63=VECTOR('',#62,9.448818897638E-2);
#64=CARTESIAN_POINT('',(0.E0,6.299212598425E-1,1.968503937008E-1));
#65=LINE('',#64,#63);
#66=CARTESIAN_POINT('',(0.E0,0.E0,1.968503937008E-1));
#67=DIRECTION('',(0.E0,0.E0,-1.E0));
#68=DIRECTION('',(0.E0,1.E0,0.E0));
#69=AXIS2_PLACEMENT_3D('',#66,#67,#68);
#71=DIRECTION('',(0.E0,0.E0,1.E0));
#72=VECTOR('',#71,9.448818897638E-2);
#73=CARTESIAN_POINT('',(0.E0,-6.299212598425E-1,1.968503937008E-1));
#74=LINE('',#73,#72);
#75=CARTESIAN_POINT('',(0.E0,0.E0,2.913385826772E-1));
#76=DIRECTION('',(0.E0,0.E0,-1.E0));
#77=DIRECTION('',(0.E0,1.E0,0.E0));
#78=AXIS2_PLACEMENT_3D('',#75,#76,#77);
#80=CARTESIAN_POINT('',(0.E0,0.E0,2.913385826772E-1));
#81=DIRECTION('',(0.E0,0.E0,1.E0));
#82=DIRECTION('',(0.E0,1.E0,0.E0));
#83=AXIS2_PLACEMENT_3D('',#80,#81,#82);
#85=CARTESIAN_POINT('',(0.E0,0.E0,2.913385826772E-1));
#86=DIRECTION('',(0.E0,0.E0,1.E0));
#87=DIRECTION('',(1.E0,0.E0,0.E0));
#88=AXIS2_PLACEMENT_3D('',#85,#86,#87);
#90=CARTESIAN_POINT('',(0.E0,0.E0,2.913385826772E-1));
#91=DIRECTION('',(0.E0,0.E0,1.E0));
#92=DIRECTION('',(-1.E0,0.E0,0.E0));
#93=AXIS2_PLACEMENT_3D('',#90,#91,#92);
#95=DIRECTION('',(0.E0,0.E0,-1.E0));
#96=VECTOR('',#95,9.842519685039E-3);
#97=CARTESIAN_POINT('',(6.102362204724E-1,0.E0,2.913385826772E-1));
#98=LINE('',#97,#96);
#99=DIRECTION('',(0.E0,0.E0,-1.E0));
#100=VECTOR('',#99,9.842519685039E-3);
#101=CARTESIAN_POINT('',(-6.102362204724E-1,0.E0,2.913385826772E-1));
#102=LINE('',#101,#100);
#103=CARTESIAN_POINT('',(0.E0,0.E0,2.814960629921E-1));
#104=DIRECTION('',(0.E0,0.E0,1.E0));
#105=DIRECTION('',(1.E0,0.E0,0.E0));
#106=AXIS2_PLACEMENT_3D('',#103,#104,#105);
#108=CARTESIAN_POINT('',(0.E0,0.E0,2.814960629921E-1));
#109=DIRECTION('',(0.E0,0.E0,1.E0));
#110=DIRECTION('',(-1.E0,0.E0,0.E0));
#111=AXIS2_PLACEMENT_3D('',#108,#109,#110);
#113=CARTESIAN_POINT('',(0.E0,6.791338582677E-1,0.E0));
#114=CARTESIAN_POINT('',(0.E0,6.791338582677E-1,1.968503937008E-1));
#115=VERTEX_POINT('',#113);
#116=VERTEX_POINT('',#114);
#117=CARTESIAN_POINT('',(0.E0,6.299212598425E-1,1.968503937008E-1));
#118=CARTESIAN_POINT('',(0.E0,6.299212598425E-1,2.913385826772E-1));
#119=VERTEX_POINT('',#117);
#120=VERTEX_POINT('',#118);
#121=CARTESIAN_POINT('',(0.E0,-6.791338582677E-1,0.E0));
#122=CARTESIAN_POINT('',(0.E0,-6.791338582677E-1,1.968503937008E-1));
#123=VERTEX_POINT('',#121);
#124=VERTEX_POINT('',#122);
#125=CARTESIAN_POINT('',(0.E0,-6.299212598425E-1,1.968503937008E-1));
#126=CARTESIAN_POINT('',(0.E0,-6.299212598425E-1,2.913385826772E-1));
#127=VERTEX_POINT('',#125);
#128=VERTEX_POINT('',#126);
#129=CARTESIAN_POINT('',(6.102362204724E-1,0.E0,2.814960629921E-1));
#130=CARTESIAN_POINT('',(-6.102362204724E-1,0.E0,2.814960629921E-1));
#131=VERTEX_POINT('',#129);
#132=VERTEX_POINT('',#130);
#133=CARTESIAN_POINT('',(6.102362204724E-1,0.E0,2.913385826772E-1));
#134=CARTESIAN_POINT('',(-6.102362204724E-1,0.E0,2.913385826772E-1));
#135=VERTEX_POINT('',#133);
#136=VERTEX_POINT('',#134);
#137=CARTESIAN_POINT('',(-5.905511811024E-1,0.E0,-3.937007874016E-2));
#138=CARTESIAN_POINT('',(5.905511811024E-1,0.E0,-3.937007874016E-2));
#139=VERTEX_POINT('',#137);
#140=VERTEX_POINT('',#138);
#141=CARTESIAN_POINT('',(-5.905511811024E-1,0.E0,0.E0));
#142=CARTESIAN_POINT('',(5.905511811024E-1,0.E0,0.E0));
#143=VERTEX_POINT('',#141);
#144=VERTEX_POINT('',#142);
#145=CARTESIAN_POINT('',(0.E0,0.E0,-1.456692913386E-2));
#146=DIRECTION('',(0.E0,0.E0,1.E0));
#147=DIRECTION('',(0.E0,1.E0,0.E0));
#148=AXIS2_PLACEMENT_3D('',#145,#146,#147);
#149=CYLINDRICAL_SURFACE('',#148,6.791338582677E-1);
#151=ORIENTED_EDGE('',*,*,#150,.T.);
#153=ORIENTED_EDGE('',*,*,#152,.T.);
#155=ORIENTED_EDGE('',*,*,#154,.F.);
#157=ORIENTED_EDGE('',*,*,#156,.F.);
#158=EDGE_LOOP('',(#151,#153,#155,#157));
#159=FACE_OUTER_BOUND('',#158,.F.);
#160=ADVANCED_FACE('',(#159),#149,.T.);
#161=CARTESIAN_POINT('',(0.E0,0.E0,-1.456692913386E-2));
#162=DIRECTION('',(0.E0,0.E0,1.E0));
#163=DIRECTION('',(0.E0,1.E0,0.E0));
#164=AXIS2_PLACEMENT_3D('',#161,#162,#163);
#165=CYLINDRICAL_SURFACE('',#164,6.791338582677E-1);
#166=ORIENTED_EDGE('',*,*,#150,.F.);
#168=ORIENTED_EDGE('',*,*,#167,.T.);
#169=ORIENTED_EDGE('',*,*,#154,.T.);
#171=ORIENTED_EDGE('',*,*,#170,.F.);
#172=EDGE_LOOP('',(#166,#168,#169,#171));
#173=FACE_OUTER_BOUND('',#172,.F.);
#174=ADVANCED_FACE('',(#173),#165,.T.);
#175=CARTESIAN_POINT('',(0.E0,0.E0,0.E0));
#176=DIRECTION('',(0.E0,0.E0,1.E0));
#177=DIRECTION('',(0.E0,1.E0,0.E0));
#178=AXIS2_PLACEMENT_3D('',#175,#176,#177);
#179=PLANE('',#178);
#180=ORIENTED_EDGE('',*,*,#167,.F.);
#181=ORIENTED_EDGE('',*,*,#156,.T.);
#182=EDGE_LOOP('',(#180,#181));
#183=FACE_OUTER_BOUND('',#182,.F.);
#185=ORIENTED_EDGE('',*,*,#184,.T.);
#187=ORIENTED_EDGE('',*,*,#186,.T.);
#188=EDGE_LOOP('',(#185,#187));
#189=FACE_BOUND('',#188,.F.);
#190=ADVANCED_FACE('',(#183,#189),#179,.F.);
#191=CARTESIAN_POINT('',(0.E0,0.E0,0.E0));
#192=DIRECTION('',(0.E0,0.E0,-1.E0));
#193=DIRECTION('',(-1.E0,0.E0,0.E0));
#194=AXIS2_PLACEMENT_3D('',#191,#192,#193);
#195=CYLINDRICAL_SURFACE('',#194,5.905511811024E-1);
#196=ORIENTED_EDGE('',*,*,#184,.F.);
#198=ORIENTED_EDGE('',*,*,#197,.T.);
#200=ORIENTED_EDGE('',*,*,#199,.T.);
#202=ORIENTED_EDGE('',*,*,#201,.F.);
#203=EDGE_LOOP('',(#196,#198,#200,#202));
#204=FACE_OUTER_BOUND('',#203,.F.);
#205=ADVANCED_FACE('',(#204),#195,.T.);
#206=CARTESIAN_POINT('',(0.E0,0.E0,0.E0));
#207=DIRECTION('',(0.E0,0.E0,-1.E0));
#208=DIRECTION('',(-1.E0,0.E0,0.E0));
#209=AXIS2_PLACEMENT_3D('',#206,#207,#208);
#210=CYLINDRICAL_SURFACE('',#209,5.905511811024E-1);
#211=ORIENTED_EDGE('',*,*,#186,.F.);
#212=ORIENTED_EDGE('',*,*,#201,.T.);
#214=ORIENTED_EDGE('',*,*,#213,.T.);
#215=ORIENTED_EDGE('',*,*,#197,.F.);
#216=EDGE_LOOP('',(#211,#212,#214,#215));
#217=FACE_OUTER_BOUND('',#216,.F.);
#218=ADVANCED_FACE('',(#217),#210,.T.);
#219=CARTESIAN_POINT('',(0.E0,0.E0,-3.937007874016E-2));
#220=DIRECTION('',(0.E0,0.E0,-1.E0));
#221=DIRECTION('',(-1.E0,0.E0,0.E0));
#222=AXIS2_PLACEMENT_3D('',#219,#220,#221);
#223=PLANE('',#222);
#224=ORIENTED_EDGE('',*,*,#199,.F.);
#225=ORIENTED_EDGE('',*,*,#213,.F.);
#226=EDGE_LOOP('',(#224,#225));
#227=FACE_OUTER_BOUND('',#226,.F.);
#228=ADVANCED_FACE('',(#227),#223,.T.);
#229=CARTESIAN_POINT('',(0.E0,0.E0,1.968503937008E-1));
#230=DIRECTION('',(0.E0,0.E0,1.E0));
#231=DIRECTION('',(0.E0,1.E0,0.E0));
#232=AXIS2_PLACEMENT_3D('',#229,#230,#231);
#233=PLANE('',#232);
#234=ORIENTED_EDGE('',*,*,#170,.T.);
#235=ORIENTED_EDGE('',*,*,#152,.F.);
#236=EDGE_LOOP('',(#234,#235));
#237=FACE_OUTER_BOUND('',#236,.F.);
#239=ORIENTED_EDGE('',*,*,#238,.T.);
#241=ORIENTED_EDGE('',*,*,#240,.F.);
#242=EDGE_LOOP('',(#239,#241));
#243=FACE_BOUND('',#242,.F.);
#244=ADVANCED_FACE('',(#237,#243),#233,.T.);
#245=CARTESIAN_POINT('',(0.E0,0.E0,-1.456692913386E-2));
#246=DIRECTION('',(0.E0,0.E0,1.E0));
#247=DIRECTION('',(0.E0,1.E0,0.E0));
#248=AXIS2_PLACEMENT_3D('',#245,#246,#247);
#249=CYLINDRICAL_SURFACE('',#248,6.299212598425E-1);
#251=ORIENTED_EDGE('',*,*,#250,.T.);
#253=ORIENTED_EDGE('',*,*,#252,.T.);
#255=ORIENTED_EDGE('',*,*,#254,.F.);
#256=ORIENTED_EDGE('',*,*,#238,.F.);
#257=EDGE_LOOP('',(#251,#253,#255,#256));
#258=FACE_OUTER_BOUND('',#257,.F.);
#259=ADVANCED_FACE('',(#258),#249,.T.);
#260=CARTESIAN_POINT('',(0.E0,0.E0,-1.456692913386E-2));
#261=DIRECTION('',(0.E0,0.E0,1.E0));
#262=DIRECTION('',(0.E0,1.E0,0.E0));
#263=AXIS2_PLACEMENT_3D('',#260,#261,#262);
#264=CYLINDRICAL_SURFACE('',#263,6.299212598425E-1);
#265=ORIENTED_EDGE('',*,*,#250,.F.);
#266=ORIENTED_EDGE('',*,*,#240,.T.);
#267=ORIENTED_EDGE('',*,*,#254,.T.);
#269=ORIENTED_EDGE('',*,*,#268,.F.);
#270=EDGE_LOOP('',(#265,#266,#267,#269));
#271=FACE_OUTER_BOUND('',#270,.F.);
#272=ADVANCED_FACE('',(#271),#264,.T.);
#273=CARTESIAN_POINT('',(0.E0,0.E0,2.913385826772E-1));
#274=DIRECTION('',(0.E0,0.E0,1.E0));
#275=DIRECTION('',(0.E0,1.E0,0.E0));
#276=AXIS2_PLACEMENT_3D('',#273,#274,#275);
#277=PLANE('',#276);
#278=ORIENTED_EDGE('',*,*,#268,.T.);
#279=ORIENTED_EDGE('',*,*,#252,.F.);
#280=EDGE_LOOP('',(#278,#279));
#281=FACE_OUTER_BOUND('',#280,.F.);
#283=ORIENTED_EDGE('',*,*,#282,.T.);
#285=ORIENTED_EDGE('',*,*,#284,.T.);
#286=EDGE_LOOP('',(#283,#285));
#287=FACE_BOUND('',#286,.F.);
#288=ADVANCED_FACE('',(#281,#287),#277,.T.);
#289=CARTESIAN_POINT('',(0.E0,0.E0,2.913385826772E-1));
#290=DIRECTION('',(0.E0,0.E0,1.E0));
#291=DIRECTION('',(1.E0,0.E0,0.E0));
#292=AXIS2_PLACEMENT_3D('',#289,#290,#291);
#293=CYLINDRICAL_SURFACE('',#292,6.102362204724E-1);
#294=ORIENTED_EDGE('',*,*,#282,.F.);
#296=ORIENTED_EDGE('',*,*,#295,.T.);
#298=ORIENTED_EDGE('',*,*,#297,.T.);
#300=ORIENTED_EDGE('',*,*,#299,.F.);
#301=EDGE_LOOP('',(#294,#296,#298,#300));
#302=FACE_OUTER_BOUND('',#301,.F.);
#303=ADVANCED_FACE('',(#302),#293,.F.);
#304=CARTESIAN_POINT('',(0.E0,0.E0,2.913385826772E-1));
#305=DIRECTION('',(0.E0,0.E0,1.E0));
#306=DIRECTION('',(1.E0,0.E0,0.E0));
#307=AXIS2_PLACEMENT_3D('',#304,#305,#306);
#308=CYLINDRICAL_SURFACE('',#307,6.102362204724E-1);
#309=ORIENTED_EDGE('',*,*,#284,.F.);
#310=ORIENTED_EDGE('',*,*,#299,.T.);
#312=ORIENTED_EDGE('',*,*,#311,.T.);
#313=ORIENTED_EDGE('',*,*,#295,.F.);
#314=EDGE_LOOP('',(#309,#310,#312,#313));
#315=FACE_OUTER_BOUND('',#314,.F.);
#316=ADVANCED_FACE('',(#315),#308,.F.);
#317=CARTESIAN_POINT('',(0.E0,0.E0,2.814960629921E-1));
#318=DIRECTION('',(0.E0,0.E0,1.E0));
#319=DIRECTION('',(1.E0,0.E0,0.E0));
#320=AXIS2_PLACEMENT_3D('',#317,#318,#319);
#321=PLANE('',#320);
#322=ORIENTED_EDGE('',*,*,#297,.F.);
#323=ORIENTED_EDGE('',*,*,#311,.F.);
#324=EDGE_LOOP('',(#322,#323));
#325=FACE_OUTER_BOUND('',#324,.F.);
#326=ADVANCED_FACE('',(#325),#321,.T.);
#327=CLOSED_SHELL('',(#160,#174,#190,#205,#218,#228,#244,#259,#272,#288,#303,
#316,#326));
#328=MANIFOLD_SOLID_BREP('',#327);
#329=DIMENSIONAL_EXPONENTS(1.E0,0.E0,0.E0,0.E0,0.E0,0.E0,0.E0);
#330=(LENGTH_UNIT()NAMED_UNIT(*)SI_UNIT(.MILLI.,.METRE.));
#331=LENGTH_MEASURE_WITH_UNIT(LENGTH_MEASURE(2.54E1),#330);
#332=(CONVERSION_BASED_UNIT('INCH',#331)LENGTH_UNIT()NAMED_UNIT(#329));
#333=DIMENSIONAL_EXPONENTS(0.E0,0.E0,0.E0,0.E0,0.E0,0.E0,0.E0);
#334=(NAMED_UNIT(*)PLANE_ANGLE_UNIT()SI_UNIT($,.RADIAN.));
#335=PLANE_ANGLE_MEASURE_WITH_UNIT(PLANE_ANGLE_MEASURE(1.745329251994E-2),#334);
#336=(CONVERSION_BASED_UNIT('DEGREE',#335)NAMED_UNIT(#333)PLANE_ANGLE_UNIT());
#337=(NAMED_UNIT(*)SI_UNIT($,.STERADIAN.)SOLID_ANGLE_UNIT());
#338=UNCERTAINTY_MEASURE_WITH_UNIT(LENGTH_MEASURE(1.949063024207E-4),#332,
'closure',
'Maximum model space distance between geometric entities at asserted connectivities');
#339=(GEOMETRIC_REPRESENTATION_CONTEXT(3)GLOBAL_UNCERTAINTY_ASSIGNED_CONTEXT((
#338))GLOBAL_UNIT_ASSIGNED_CONTEXT((#332,#336,#337))REPRESENTATION_CONTEXT
('ID1','3'));
#341=APPLICATION_CONTEXT(
'CONFIGURATION CONTROLLED 3D DESIGNS OF MECHANICAL PARTS AND ASSEMBLIES');
#342=APPLICATION_PROTOCOL_DEFINITION('international standard',
'config_control_design',1994,#341);
#343=DESIGN_CONTEXT('',#341,'design');
#344=MECHANICAL_CONTEXT('',#341,'mechanical');
#345=PRODUCT('158489_SW','158489_SW','NOT SPECIFIED',(#344));
#346=PRODUCT_DEFINITION_FORMATION_WITH_SPECIFIED_SOURCE('','LAST_VERSION',#345,
.MADE.);
#350=PRODUCT_CATEGORY('part','');
#351=PRODUCT_RELATED_PRODUCT_CATEGORY('detail','',(#345));
#352=PRODUCT_CATEGORY_RELATIONSHIP('','',#350,#351);
#353=SECURITY_CLASSIFICATION_LEVEL('unclassified');
#354=SECURITY_CLASSIFICATION('','',#353);
#355=CC_DESIGN_SECURITY_CLASSIFICATION(#354,(#346));
#356=APPROVAL_STATUS('approved');
#357=APPROVAL(#356,'');
#358=CC_DESIGN_APPROVAL(#357,(#354,#346,#347));
#359=CALENDAR_DATE(111,6,10);
#360=COORDINATED_UNIVERSAL_TIME_OFFSET(5,0,.BEHIND.);
#361=LOCAL_TIME(12,34,3.7E1,#360);
#362=DATE_AND_TIME(#359,#361);
#363=APPROVAL_DATE_TIME(#362,#357);
#364=DATE_TIME_ROLE('creation_date');
#365=CC_DESIGN_DATE_AND_TIME_ASSIGNMENT(#362,#364,(#347));
#366=DATE_TIME_ROLE('classification_date');
#367=CC_DESIGN_DATE_AND_TIME_ASSIGNMENT(#362,#366,(#354));
#368=PERSON('UNSPECIFIED','UNSPECIFIED',$,$,$,$);
#369=ORGANIZATION('UNSPECIFIED','UNSPECIFIED','UNSPECIFIED');
#370=PERSON_AND_ORGANIZATION(#368,#369);
#371=APPROVAL_ROLE('approver');
#372=APPROVAL_PERSON_ORGANIZATION(#370,#357,#371);
#373=PERSON_AND_ORGANIZATION_ROLE('creator');
#374=CC_DESIGN_PERSON_AND_ORGANIZATION_ASSIGNMENT(#370,#373,(#346,#347));
#375=PERSON_AND_ORGANIZATION_ROLE('design_supplier');
#376=CC_DESIGN_PERSON_AND_ORGANIZATION_ASSIGNMENT(#370,#375,(#346));
#377=PERSON_AND_ORGANIZATION_ROLE('classification_officer');
#378=CC_DESIGN_PERSON_AND_ORGANIZATION_ASSIGNMENT(#370,#377,(#354));
#379=PERSON_AND_ORGANIZATION_ROLE('design_owner');
#380=CC_DESIGN_PERSON_AND_ORGANIZATION_ASSIGNMENT(#370,#379,(#345));
#5=CIRCLE('',#4,6.791338582677E-1);
#14=CIRCLE('',#13,6.791338582677E-1);
#23=CIRCLE('',#22,5.905511811024E-1);
#28=CIRCLE('',#27,5.905511811024E-1);
#41=CIRCLE('',#40,5.905511811024E-1);
#46=CIRCLE('',#45,5.905511811024E-1);
#51=CIRCLE('',#50,6.791338582677E-1);
#56=CIRCLE('',#55,6.791338582677E-1);
#61=CIRCLE('',#60,6.299212598425E-1);
#70=CIRCLE('',#69,6.299212598425E-1);
#79=CIRCLE('',#78,6.299212598425E-1);
#84=CIRCLE('',#83,6.299212598425E-1);
#89=CIRCLE('',#88,6.102362204724E-1);
#94=CIRCLE('',#93,6.102362204724E-1);
#107=CIRCLE('',#106,6.102362204724E-1);
#112=CIRCLE('',#111,6.102362204724E-1);
#150=EDGE_CURVE('',#115,#116,#9,.T.);
#152=EDGE_CURVE('',#116,#124,#56,.T.);
#154=EDGE_CURVE('',#123,#124,#18,.T.);
#156=EDGE_CURVE('',#115,#123,#5,.T.);
#167=EDGE_CURVE('',#115,#123,#14,.T.);
#170=EDGE_CURVE('',#116,#124,#51,.T.);
#184=EDGE_CURVE('',#143,#144,#23,.T.);
#186=EDGE_CURVE('',#144,#143,#28,.T.);
#197=EDGE_CURVE('',#143,#139,#32,.T.);
#199=EDGE_CURVE('',#139,#140,#41,.T.);
#201=EDGE_CURVE('',#144,#140,#36,.T.);
#213=EDGE_CURVE('',#140,#139,#46,.T.);
#238=EDGE_CURVE('',#119,#127,#61,.T.);
#240=EDGE_CURVE('',#119,#127,#70,.T.);
#250=EDGE_CURVE('',#119,#120,#65,.T.);
#252=EDGE_CURVE('',#120,#128,#84,.T.);
#254=EDGE_CURVE('',#127,#128,#74,.T.);
#268=EDGE_CURVE('',#120,#128,#79,.T.);
#282=EDGE_CURVE('',#135,#136,#89,.T.);
#284=EDGE_CURVE('',#136,#135,#94,.T.);
#295=EDGE_CURVE('',#135,#131,#98,.T.);
#297=EDGE_CURVE('',#131,#132,#107,.T.);
#299=EDGE_CURVE('',#136,#132,#102,.T.);
#311=EDGE_CURVE('',#132,#131,#112,.T.);
#340=ADVANCED_BREP_SHAPE_REPRESENTATION('',(#328),#339);
#347=PRODUCT_DEFINITION('design','',#346,#343);
#348=PRODUCT_DEFINITION_SHAPE('','SHAPE FOR 158489_SW.',#347);
#349=SHAPE_DEFINITION_REPRESENTATION(#348,#340);
ENDSEC;
END-ISO-10303-21;
