 PTC IGES file: 156818.igs                                              S      1
1H,,1H;,9H156818_SW,10H156818.igs,                                      G      1
49HPro/ENGINEER by Parametric Technology Corporation,7H2009141,32,38,7, G      2
38,15,9H156818_SW,1.,1,4HINCH,32768,0.5,15H20111006.110847,0.00015614,  G      3
1.56146,13Hbanengservice,7HUnknown,10,0,15H20111006.110847;             G      4
     314       1       1       1       0       0       0       001000200D      1
     314       0       4       1       0                   COLOR       1D      2
     314       2       1       1       0       0       0       001000200D      3
     314       0       1       1       0                   COLOR       2D      4
     314       3       1       1       0       0       0       001000200D      5
     314       0       1       1       0                   COLOR       3D      6
     314       4       1       1       0       0       0       001000200D      7
     314       0       1       1       0                   COLOR       4D      8
     314       5       1       1       0       0       0       001000200D      9
     314       0       8       1       0                   COLOR       5D     10
     314       6       1       1       0       0       0       001000200D     11
     314       0       8       1       0                   COLOR       6D     12
     314       7       1       1       0       0       0       001000200D     13
     314       0       5       1       0                   COLOR       7D     14
     314       8       1       1       0       0       0       001000200D     15
     314       0       8       1       0                   COLOR       8D     16
     110       9       1       1       0       0       0       001010000D     17
     110       0       0       2       0                    LINE       1D     18
     110      11       1       1       0       0       0       001010000D     19
     110       0       0       2       0                    LINE       2D     20
     110      13       1       1       0       0       0       001010000D     21
     110       0       0       2       0                    LINE       3D     22
     110      15       1       1       0       0       0       001010000D     23
     110       0       0       2       0                    LINE       4D     24
     110      17       1       1       0       0       0       001010000D     25
     110       0       0       2       0                    LINE       5D     26
     110      19       1       1       0       0       0       001010000D     27
     110       0       0       2       0                    LINE       6D     28
     110      21       1       1       0       0       0       001010000D     29
     110       0       0       2       0                    LINE       7D     30
     110      23       1       1       0       0       0       001010000D     31
     110       0       0       2       0                    LINE       8D     32
     110      25       1       1       0       0       0       001010000D     33
     110       0       0       2       0                    LINE       9D     34
     110      27       1       1       0       0       0       001010000D     35
     110       0       0       2       0                    LINE      10D     36
     110      29       1       1       0       0       0       001010000D     37
     110       0       0       2       0                    LINE      11D     38
     110      31       1       1       0       0       0       001010000D     39
     110       0       0       2       0                    LINE      12D     40
     110      33       1       1       0       0       0       001010000D     41
     110       0       0       2       0                    LINE      13D     42
     110      35       1       1       0       0       0       001010000D     43
     110       0       0       2       0                    LINE      14D     44
     110      37       1       1       0       0       0       001010000D     45
     110       0       0       2       0                    LINE      15D     46
     110      39       1       1       0       0       0       001010000D     47
     110       0       0       2       0                    LINE      16D     48
     110      41       1       1       0       0       0       001010000D     49
     110       0       0       2       0                    LINE      17D     50
     110      43       1       1       0       0       0       001010000D     51
     110       0       0       2       0                    LINE      18D     52
     110      45       1       1       0       0       0       001010000D     53
     110       0       0       2       0                    LINE      19D     54
     110      47       1       1       0       0       0       001010000D     55
     110       0       0       2       0                    LINE      20D     56
     110      49       1       1       0       0       0       001010000D     57
     110       0       0       2       0                    LINE      21D     58
     110      51       1       1       0       0       0       001010000D     59
     110       0       0       2       0                    LINE      22D     60
     110      53       1       1       0       0       0       001010000D     61
     110       0       0       2       0                    LINE      23D     62
     110      55       1       1       0       0       0       001010000D     63
     110       0       0       2       0                    LINE      24D     64
     502      57       1       1       0       0       0       001010000D     65
     502       0       0      15       1                  VERTEX       1D     66
     504      72       1       1       0       0       0       000010001D     67
     504       0       0       6       1                    EDGE       1D     68
     128      78       1       1       0       0       0       001010000D     69
     128       0       0       8       0                  SPLSRF       1D     70
     508      86       1       1       0       0       0       001010000D     71
     508       0       0       1       1                EDGELOOP       1D     72
     510      87       1       1       0       0       0       000010000D     73
     510       0       0       1       1                    FACE       1D     74
     128      88       1       1       0       0       0       001010000D     75
     128       0       0       9       0                  SPLSRF       2D     76
     508      97       1       1       0       0       0       001010000D     77
     508       0       0       1       1                EDGELOOP       2D     78
     510      98       1       1       0       0       0       000010000D     79
     510       0       0       1       1                    FACE       2D     80
     128      99       1       1       0       0       0       001010000D     81
     128       0       0       9       0                  SPLSRF       3D     82
     508     108       1       1       0       0       0       001010000D     83
     508       0       0       1       1                EDGELOOP       3D     84
     510     109       1       1       0       0       0       000010000D     85
     510       0       0       1       1                    FACE       3D     86
     128     110       1       1       0       0       0       001010000D     87
     128       0       0       9       0                  SPLSRF       4D     88
     508     119       1       1       0       0       0       001010000D     89
     508       0       0       1       1                EDGELOOP       4D     90
     510     120       1       1       0       0       0       000010000D     91
     510       0       0       1       1                    FACE       4D     92
     128     121       1       1       0       0       0       001010000D     93
     128       0       0       9       0                  SPLSRF       5D     94
     508     130       1       1       0       0       0       001010000D     95
     508       0       0       1       1                EDGELOOP       5D     96
     510     131       1       1       0       0       0       000010000D     97
     510       0       0       1       1                    FACE       5D     98
     128     132       1       1       0       0       0       001010000D     99
     128       0       0       9       0                  SPLSRF       6D    100
     508     141       1       1       0       0       0       001010000D    101
     508       0       0       1       1                EDGELOOP       6D    102
     508     142       1       1       0       0       0       001010000D    103
     508       0       0       1       1                EDGELOOP       7D    104
     510     143       1       1       0       0       0       000010000D    105
     510       0       0       1       1                    FACE       6D    106
     128     144       1       1       0       0       0       001010000D    107
     128       0       0       9       0                  SPLSRF       7D    108
     508     153       1       1       0       0       0       001010000D    109
     508       0       0       1       1                EDGELOOP       8D    110
     510     154       1       1       0       0       0       000010000D    111
     510       0       0       1       1                    FACE       7D    112
     128     155       1       1       0       0       0       001010000D    113
     128       0       0       9       0                  SPLSRF       8D    114
     508     164       1       1       0       0       0       001010000D    115
     508       0       0       1       1                EDGELOOP       9D    116
     510     165       1       1       0       0       0       000010000D    117
     510       0       0       1       1                    FACE       8D    118
     128     166       1       1       0       0       0       001010000D    119
     128       0       0       9       0                  SPLSRF       9D    120
     508     175       1       1       0       0       0       001010000D    121
     508       0       0       1       1                EDGELOOP      10D    122
     510     176       1       1       0       0       0       000010000D    123
     510       0       0       1       1                    FACE       9D    124
     128     177       1       1       0       0       0       001010000D    125
     128       0       0       9       0                  SPLSRF      10D    126
     508     186       1       1       0       0       0       001010000D    127
     508       0       0       1       1                EDGELOOP      11D    128
     510     187       1       1       0       0       0       000010000D    129
     510       0       0       1       1                    FACE      10D    130
     128     188       1       1       0       0       0       001010000D    131
     128       0       8       9       0                  SPLSRF      11D    132
     508     197       1       1       0       0       0       001010000D    133
     508       0       0       1       1                EDGELOOP      12D    134
     510     198       1       1       0       0       0       000010000D    135
     510       0       8       1       1                    FACE      11D    136
     514     199       1       1       0       0       0       000010000D    137
     514       0       0       2       1                   SHELL       1D    138
     186     201       1       1       0       0       0       000000000D    139
     186       0       0       1       0                    MSBR       1D    140
314,1.1D0,1.2D0,1D2;                                                   1P      1
314,1.1D1,1.1D1,1.1D1;                                                 3P      2
314,3.92D1,1.2D0,1.2D0;                                                5P      3
314,4.1D1,0D0,2.2D1;                                                   7P      4
314,8.784D1,9.49D1,1D2;                                                9P      5
314,9.6D1,9.6D1,9.6D1;                                                11P      6
314,9.8D1,6.27D1,0D0;                                                 13P      7
314,1D2,1D2,9.49D1;                                                   15P      8
110,-3.937007874016D-1,5.905511811024D-1,0D0,-3.937007874016D-1,      17P      9
-5.905511811024D-1,0D0;                                               17P     10
110,-3.937007874016D-1,-5.905511811024D-1,0D0,3.937007874016D-1,      19P     11
-5.905511811024D-1,0D0;                                               19P     12
110,3.937007874016D-1,-5.905511811024D-1,0D0,3.937007874016D-1,       21P     13
5.905511811024D-1,0D0;                                                21P     14
110,3.937007874016D-1,5.905511811024D-1,0D0,-3.937007874016D-1,       23P     15
5.905511811024D-1,0D0;                                                23P     16
110,-3.937007874016D-1,5.905511811024D-1,0D0,-3.937007874016D-1,      25P     17
5.905511811024D-1,9.842519685039D-2;                                  25P     18
110,3.937007874016D-1,5.905511811024D-1,0D0,3.937007874016D-1,        27P     19
5.905511811024D-1,9.842519685039D-2;                                  27P     20
110,3.937007874016D-1,-5.905511811024D-1,0D0,3.937007874016D-1,       29P     21
-5.905511811024D-1,9.842519685039D-2;                                 29P     22
110,-3.937007874016D-1,-5.905511811024D-1,0D0,                        31P     23
-3.937007874016D-1,-5.905511811024D-1,9.842519685039D-2;              31P     24
110,-3.937007874016D-1,5.905511811024D-1,9.842519685039D-2,           33P     25
-3.937007874016D-1,-5.905511811024D-1,9.842519685039D-2;              33P     26
110,3.937007874016D-1,5.905511811024D-1,9.842519685039D-2,            35P     27
-3.937007874016D-1,5.905511811024D-1,9.842519685039D-2;               35P     28
110,3.937007874016D-1,-5.905511811024D-1,9.842519685039D-2,           37P     29
3.937007874016D-1,5.905511811024D-1,9.842519685039D-2;                37P     30
110,-3.937007874016D-1,-5.905511811024D-1,9.842519685039D-2,          39P     31
3.937007874016D-1,-5.905511811024D-1,9.842519685039D-2;               39P     32
110,-3.641732283465D-1,5.610236220472D-1,9.842519685039D-2,           41P     33
-3.641732283465D-1,-5.610236220472D-1,9.842519685039D-2;              41P     34
110,-3.641732283465D-1,-5.610236220472D-1,9.842519685039D-2,          43P     35
3.641732283465D-1,-5.610236220472D-1,9.842519685039D-2;               43P     36
110,3.641732283465D-1,-5.610236220472D-1,9.842519685039D-2,           45P     37
3.641732283465D-1,5.610236220472D-1,9.842519685039D-2;                45P     38
110,3.641732283465D-1,5.610236220472D-1,9.842519685039D-2,            47P     39
-3.641732283465D-1,5.610236220472D-1,9.842519685039D-2;               47P     40
110,-3.641732283465D-1,5.610236220472D-1,9.842519685039D-2,           49P     41
-3.641732283465D-1,5.610236220472D-1,8.858267716535D-2;               49P     42
110,3.641732283465D-1,5.610236220472D-1,9.842519685039D-2,            51P     43
3.641732283465D-1,5.610236220472D-1,8.858267716535D-2;                51P     44
110,3.641732283465D-1,-5.610236220472D-1,9.842519685039D-2,           53P     45
3.641732283465D-1,-5.610236220472D-1,8.858267716535D-2;               53P     46
110,-3.641732283465D-1,-5.610236220472D-1,9.842519685039D-2,          55P     47
-3.641732283465D-1,-5.610236220472D-1,8.858267716535D-2;              55P     48
110,-3.641732283465D-1,5.610236220472D-1,8.858267716535D-2,           57P     49
-3.641732283465D-1,-5.610236220472D-1,8.858267716535D-2;              57P     50
110,3.641732283465D-1,5.610236220472D-1,8.858267716535D-2,            59P     51
-3.641732283465D-1,5.610236220472D-1,8.858267716535D-2;               59P     52
110,3.641732283465D-1,-5.610236220472D-1,8.858267716535D-2,           61P     53
3.641732283465D-1,5.610236220472D-1,8.858267716535D-2;                61P     54
110,-3.641732283465D-1,-5.610236220472D-1,8.858267716535D-2,          63P     55
3.641732283465D-1,-5.610236220472D-1,8.858267716535D-2;               63P     56
502,16,-3.937007874016D-1,5.905511811024D-1,0D0,                      65P     57
-3.937007874016D-1,-5.905511811024D-1,0D0,3.937007874016D-1,          65P     58
-5.905511811024D-1,0D0,3.937007874016D-1,5.905511811024D-1,0D0,       65P     59
-3.937007874016D-1,5.905511811024D-1,9.842519685039D-2,               65P     60
-3.937007874016D-1,-5.905511811024D-1,9.842519685039D-2,              65P     61
3.937007874016D-1,-5.905511811024D-1,9.842519685039D-2,               65P     62
3.937007874016D-1,5.905511811024D-1,9.842519685039D-2,                65P     63
-3.641732283465D-1,5.610236220472D-1,8.858267716535D-2,               65P     64
-3.641732283465D-1,-5.610236220472D-1,8.858267716535D-2,              65P     65
3.641732283465D-1,-5.610236220472D-1,8.858267716535D-2,               65P     66
3.641732283465D-1,5.610236220472D-1,8.858267716535D-2,                65P     67
-3.641732283465D-1,5.610236220472D-1,9.842519685039D-2,               65P     68
-3.641732283465D-1,-5.610236220472D-1,9.842519685039D-2,              65P     69
3.641732283465D-1,-5.610236220472D-1,9.842519685039D-2,               65P     70
3.641732283465D-1,5.610236220472D-1,9.842519685039D-2;                65P     71
504,24,17,65,1,65,2,19,65,2,65,3,21,65,3,65,4,23,65,4,65,1,33,        67P     72
65,5,65,6,39,65,6,65,7,37,65,7,65,8,35,65,8,65,5,25,65,1,65,5,        67P     73
31,65,2,65,6,29,65,3,65,7,27,65,4,65,8,57,65,9,65,10,63,65,10,        67P     74
65,11,61,65,11,65,12,59,65,12,65,9,41,65,13,65,14,43,65,14,65,        67P     75
15,45,65,15,65,16,47,65,16,65,13,49,65,13,65,9,55,65,14,65,10,        67P     76
53,65,15,65,11,51,65,16,65,12;                                        67P     77
128,1,1,1,1,0,0,1,0,0,-4.094488188976D-1,-4.094488188976D-1,          69P     78
4.094488188976D-1,4.094488188976D-1,-6.141732283465D-1,               69P     79
-6.141732283465D-1,6.141732283465D-1,6.141732283465D-1,1D0,1D0,       69P     80
1D0,1D0,-4.094488188976D-1,-6.141732283465D-1,0D0,                    69P     81
4.094488188976D-1,-6.141732283465D-1,0D0,-4.094488188976D-1,          69P     82
6.141732283465D-1,0D0,4.094488188976D-1,6.141732283465D-1,0D0,        69P     83
-4.094488188976D-1,4.094488188976D-1,-6.141732283465D-1,              69P     84
6.141732283465D-1;                                                    69P     85
508,4,0,67,1,1,0,0,67,2,1,0,0,67,3,1,0,0,67,4,1,0;                    71P     86
510,69,1,0,71;                                                        73P     87
128,1,1,1,1,0,0,1,0,0,-2.362204724409D-2,-2.362204724409D-2,          75P     88
1.204724409449D0,1.204724409449D0,-1.968503937008D-3,                 75P     89
-1.968503937008D-3,1.003937007874D-1,1.003937007874D-1,1D0,1D0,       75P     90
1D0,1D0,-3.937007874016D-1,6.141732283465D-1,-1.968503937008D-3,      75P     91
-3.937007874016D-1,-6.141732283465D-1,-1.968503937008D-3,             75P     92
-3.937007874016D-1,6.141732283465D-1,1.003937007874D-1,               75P     93
-3.937007874016D-1,-6.141732283465D-1,1.003937007874D-1,              75P     94
-2.362204724409D-2,1.204724409449D0,-1.968503937008D-3,               75P     95
1.003937007874D-1;                                                    75P     96
508,4,0,67,1,0,0,0,67,9,1,0,0,67,5,1,0,0,67,10,0,0;                   77P     97
510,75,1,0,77;                                                        79P     98
128,1,1,1,1,0,0,1,0,0,-1.574803149606D-2,-1.574803149606D-2,          81P     99
8.031496062992D-1,8.031496062992D-1,-1.968503937008D-3,               81P    100
-1.968503937008D-3,1.003937007874D-1,1.003937007874D-1,1D0,1D0,       81P    101
1D0,1D0,4.094488188976D-1,5.905511811024D-1,-1.968503937008D-3,       81P    102
-4.094488188976D-1,5.905511811024D-1,-1.968503937008D-3,              81P    103
4.094488188976D-1,5.905511811024D-1,1.003937007874D-1,                81P    104
-4.094488188976D-1,5.905511811024D-1,1.003937007874D-1,               81P    105
-1.574803149606D-2,8.031496062992D-1,-1.968503937008D-3,              81P    106
1.003937007874D-1;                                                    81P    107
508,4,0,67,4,0,0,0,67,12,1,0,0,67,8,1,0,0,67,9,0,0;                   83P    108
510,81,1,0,83;                                                        85P    109
128,1,1,1,1,0,0,1,0,0,-2.362204724409D-2,-2.362204724409D-2,          87P    110
1.204724409449D0,1.204724409449D0,-1.968503937008D-3,                 87P    111
-1.968503937008D-3,1.003937007874D-1,1.003937007874D-1,1D0,1D0,       87P    112
1D0,1D0,3.937007874016D-1,-6.141732283465D-1,-1.968503937008D-3,      87P    113
3.937007874016D-1,6.141732283465D-1,-1.968503937008D-3,               87P    114
3.937007874016D-1,-6.141732283465D-1,1.003937007874D-1,               87P    115
3.937007874016D-1,6.141732283465D-1,1.003937007874D-1,                87P    116
-2.362204724409D-2,1.204724409449D0,-1.968503937008D-3,               87P    117
1.003937007874D-1;                                                    87P    118
508,4,0,67,3,0,0,0,67,11,1,0,0,67,7,1,0,0,67,12,0,0;                  89P    119
510,87,1,0,89;                                                        91P    120
128,1,1,1,1,0,0,1,0,0,-1.574803149606D-2,-1.574803149606D-2,          93P    121
8.031496062992D-1,8.031496062992D-1,-1.968503937008D-3,               93P    122
-1.968503937008D-3,1.003937007874D-1,1.003937007874D-1,1D0,1D0,       93P    123
1D0,1D0,-4.094488188976D-1,-5.905511811024D-1,                        93P    124
-1.968503937008D-3,4.094488188976D-1,-5.905511811024D-1,              93P    125
-1.968503937008D-3,-4.094488188976D-1,-5.905511811024D-1,             93P    126
1.003937007874D-1,4.094488188976D-1,-5.905511811024D-1,               93P    127
1.003937007874D-1,-1.574803149606D-2,8.031496062992D-1,               93P    128
-1.968503937008D-3,1.003937007874D-1;                                 93P    129
508,4,0,67,2,0,0,0,67,10,1,0,0,67,6,1,0,0,67,11,0,0;                  95P    130
510,93,1,0,95;                                                        97P    131
128,1,1,1,1,0,0,1,0,0,-4.094488188976D-1,-4.094488188976D-1,          99P    132
4.094488188976D-1,4.094488188976D-1,-6.141732283465D-1,               99P    133
-6.141732283465D-1,6.141732283465D-1,6.141732283465D-1,1D0,1D0,       99P    134
1D0,1D0,-4.094488188976D-1,-6.141732283465D-1,9.842519685039D-2,      99P    135
4.094488188976D-1,-6.141732283465D-1,9.842519685039D-2,               99P    136
-4.094488188976D-1,6.141732283465D-1,9.842519685039D-2,               99P    137
4.094488188976D-1,6.141732283465D-1,9.842519685039D-2,                99P    138
-4.094488188976D-1,4.094488188976D-1,-6.141732283465D-1,              99P    139
6.141732283465D-1;                                                    99P    140
508,4,0,67,5,0,0,0,67,8,0,0,0,67,7,0,0,0,67,6,0,0;                   101P    141
508,4,0,67,17,1,0,0,67,18,1,0,0,67,19,1,0,0,67,20,1,0;               103P    142
510,99,2,0,101,103;                                                  105P    143
128,1,1,1,1,0,0,1,0,0,-2.244094488189D-2,-2.244094488189D-2,         107P    144
1.144488188976D0,1.144488188976D0,-1.171627074158D-2,                107P    145
-1.171627074158D-2,1.873751056540D-3,1.873751056540D-3,1D0,1D0,      107P    146
1D0,1D0,-3.641732283465D-1,5.834645669291D-1,8.670892610881D-2,      107P    147
-3.641732283465D-1,-5.834645669291D-1,8.670892610881D-2,             107P    148
-3.641732283465D-1,5.834645669291D-1,1.002989479069D-1,              107P    149
-3.641732283465D-1,-5.834645669291D-1,1.002989479069D-1,             107P    150
-2.244094488189D-2,1.144488188976D0,-1.171627074158D-2,              107P    151
1.873751056540D-3;                                                   107P    152
508,4,0,67,17,0,0,0,67,21,1,0,0,67,13,1,0,0,67,22,0,0;               109P    153
510,107,1,0,109;                                                     111P    154
128,1,1,1,1,0,0,1,0,0,-1.456692913386D-2,-1.456692913386D-2,         113P    155
7.429133858268D-1,7.429133858268D-1,-1.171627074158D-2,              113P    156
-1.171627074158D-2,1.873751056540D-3,1.873751056540D-3,1D0,1D0,      113P    157
1D0,1D0,3.787401574803D-1,5.610236220472D-1,8.670892610881D-2,       113P    158
-3.787401574803D-1,5.610236220472D-1,8.670892610881D-2,              113P    159
3.787401574803D-1,5.610236220472D-1,1.002989479069D-1,               113P    160
-3.787401574803D-1,5.610236220472D-1,1.002989479069D-1,              113P    161
-1.456692913386D-2,7.429133858268D-1,-1.171627074158D-2,             113P    162
1.873751056540D-3;                                                   113P    163
508,4,0,67,20,0,0,0,67,24,1,0,0,67,16,1,0,0,67,21,0,0;               115P    164
510,113,1,0,115;                                                     117P    165
128,1,1,1,1,0,0,1,0,0,-2.244094488189D-2,-2.244094488189D-2,         119P    166
1.144488188976D0,1.144488188976D0,-1.171627074158D-2,                119P    167
-1.171627074158D-2,1.873751056540D-3,1.873751056540D-3,1D0,1D0,      119P    168
1D0,1D0,3.641732283465D-1,-5.834645669291D-1,8.670892610881D-2,      119P    169
3.641732283465D-1,5.834645669291D-1,8.670892610881D-2,               119P    170
3.641732283465D-1,-5.834645669291D-1,1.002989479069D-1,              119P    171
3.641732283465D-1,5.834645669291D-1,1.002989479069D-1,               119P    172
-2.244094488189D-2,1.144488188976D0,-1.171627074158D-2,              119P    173
1.873751056540D-3;                                                   119P    174
508,4,0,67,19,0,0,0,67,23,1,0,0,67,15,1,0,0,67,24,0,0;               121P    175
510,119,1,0,121;                                                     123P    176
128,1,1,1,1,0,0,1,0,0,-1.456692913386D-2,-1.456692913386D-2,         125P    177
7.429133858268D-1,7.429133858268D-1,-1.171627074158D-2,              125P    178
-1.171627074158D-2,1.873751056540D-3,1.873751056540D-3,1D0,1D0,      125P    179
1D0,1D0,-3.787401574803D-1,-5.610236220472D-1,8.670892610881D-2,     125P    180
3.787401574803D-1,-5.610236220472D-1,8.670892610881D-2,              125P    181
-3.787401574803D-1,-5.610236220472D-1,1.002989479069D-1,             125P    182
3.787401574803D-1,-5.610236220472D-1,1.002989479069D-1,              125P    183
-1.456692913386D-2,7.429133858268D-1,-1.171627074158D-2,             125P    184
1.873751056540D-3;                                                   125P    185
508,4,0,67,18,0,0,0,67,22,1,0,0,67,14,1,0,0,67,23,0,0;               127P    186
510,125,1,0,127;                                                     129P    187
128,1,1,1,1,0,0,1,0,0,-3.787401574803D-1,-3.787401574803D-1,         131P    188
3.787401574803D-1,3.787401574803D-1,-5.834645669291D-1,              131P    189
-5.834645669291D-1,5.834645669291D-1,5.834645669291D-1,1D0,1D0,      131P    190
1D0,1D0,-3.787401574803D-1,-5.834645669291D-1,8.858267716535D-2,     131P    191
3.787401574803D-1,-5.834645669291D-1,8.858267716535D-2,              131P    192
-3.787401574803D-1,5.834645669291D-1,8.858267716535D-2,              131P    193
3.787401574803D-1,5.834645669291D-1,8.858267716535D-2,               131P    194
-3.787401574803D-1,3.787401574803D-1,-5.834645669291D-1,             131P    195
5.834645669291D-1;                                                   131P    196
508,4,0,67,13,0,0,0,67,16,0,0,0,67,15,0,0,0,67,14,0,0;               133P    197
510,131,1,0,133;                                                     135P    198
514,11,73,0,79,1,85,1,91,1,97,1,105,1,111,0,117,0,123,0,129,0,       137P    199
135,1;                                                               137P    200
186,137,1,0;                                                         139P    201
S      1G      4D    140P    201                                        T      1
