ISO-10303-21;
HEADER;
FILE_DESCRIPTION((''),'2;1');
FILE_NAME('156816_ASM','2023-11-30T08:55:52',('banengservice'),(
'BANNER ENGINEERING'),'CREO PARAMETRIC BY PTC INC, 2022414',
'CREO PARAMETRIC BY PTC INC, 2022414','');
FILE_SCHEMA(('CONFIG_CONTROL_DESIGN'));
ENDSEC;
DATA;
#1=DIRECTION('',(0.E0,-1.E0,0.E0));
#2=VECTOR('',#1,6.1E1);
#3=CARTESIAN_POINT('',(-2.565E1,3.05E1,0.E0));
#4=LINE('',#3,#2);
#5=DIRECTION('',(1.E0,0.E0,0.E0));
#6=VECTOR('',#5,5.13E1);
#7=CARTESIAN_POINT('',(-2.565E1,-3.05E1,0.E0));
#8=LINE('',#7,#6);
#9=DIRECTION('',(0.E0,1.E0,0.E0));
#10=VECTOR('',#9,6.1E1);
#11=CARTESIAN_POINT('',(2.565E1,-3.05E1,0.E0));
#12=LINE('',#11,#10);
#13=DIRECTION('',(-1.E0,0.E0,0.E0));
#14=VECTOR('',#13,5.13E1);
#15=CARTESIAN_POINT('',(2.565E1,3.05E1,0.E0));
#16=LINE('',#15,#14);
#17=CARTESIAN_POINT('',(-9.9E0,-2.51E1,0.E0));
#18=DIRECTION('',(0.E0,0.E0,-1.E0));
#19=DIRECTION('',(0.E0,1.E0,0.E0));
#20=AXIS2_PLACEMENT_3D('',#17,#18,#19);
#22=DIRECTION('',(-1.E0,0.E0,0.E0));
#23=VECTOR('',#22,1.E1);
#24=CARTESIAN_POINT('',(-9.9E0,-2.72E1,0.E0));
#25=LINE('',#24,#23);
#26=CARTESIAN_POINT('',(-1.99E1,-2.51E1,0.E0));
#27=DIRECTION('',(0.E0,0.E0,-1.E0));
#28=DIRECTION('',(-2.199298944019E-14,-1.E0,0.E0));
#29=AXIS2_PLACEMENT_3D('',#26,#27,#28);
#31=DIRECTION('',(1.E0,0.E0,0.E0));
#32=VECTOR('',#31,1.E1);
#33=CARTESIAN_POINT('',(-1.99E1,-2.3E1,0.E0));
#34=LINE('',#33,#32);
#35=DIRECTION('',(1.E0,0.E0,0.E0));
#36=VECTOR('',#35,1.E1);
#37=CARTESIAN_POINT('',(9.9E0,-2.3E1,0.E0));
#38=LINE('',#37,#36);
#39=CARTESIAN_POINT('',(1.99E1,-2.51E1,0.E0));
#40=DIRECTION('',(0.E0,0.E0,-1.E0));
#41=DIRECTION('',(0.E0,1.E0,0.E0));
#42=AXIS2_PLACEMENT_3D('',#39,#40,#41);
#44=DIRECTION('',(-1.E0,0.E0,0.E0));
#45=VECTOR('',#44,1.E1);
#46=CARTESIAN_POINT('',(1.99E1,-2.72E1,0.E0));
#47=LINE('',#46,#45);
#48=CARTESIAN_POINT('',(9.9E0,-2.51E1,0.E0));
#49=DIRECTION('',(0.E0,0.E0,-1.E0));
#50=DIRECTION('',(-2.030122102172E-14,-1.E0,0.E0));
#51=AXIS2_PLACEMENT_3D('',#48,#49,#50);
#53=DIRECTION('',(0.E0,0.E0,1.E0));
#54=VECTOR('',#53,8.E0);
#55=CARTESIAN_POINT('',(2.565E1,3.05E1,0.E0));
#56=LINE('',#55,#54);
#57=DIRECTION('',(0.E0,0.E0,-1.E0));
#58=VECTOR('',#57,8.E0);
#59=CARTESIAN_POINT('',(-2.565E1,3.05E1,8.E0));
#60=LINE('',#59,#58);
#61=DIRECTION('',(0.E0,0.E0,1.E0));
#62=VECTOR('',#61,4.3E0);
#63=CARTESIAN_POINT('',(2.565E1,-2.07E1,3.7E0));
#64=LINE('',#63,#62);
#65=DIRECTION('',(0.E0,0.E0,1.E0));
#66=VECTOR('',#65,3.7E0);
#67=CARTESIAN_POINT('',(2.565E1,-3.05E1,0.E0));
#68=LINE('',#67,#66);
#69=CARTESIAN_POINT('',(-9.9E0,-2.51E1,3.7E0));
#70=DIRECTION('',(0.E0,0.E0,-1.E0));
#71=DIRECTION('',(0.E0,1.E0,0.E0));
#72=AXIS2_PLACEMENT_3D('',#69,#70,#71);
#74=DIRECTION('',(1.E0,0.E0,0.E0));
#75=VECTOR('',#74,1.E1);
#76=CARTESIAN_POINT('',(-1.99E1,-2.3E1,3.7E0));
#77=LINE('',#76,#75);
#78=CARTESIAN_POINT('',(-1.99E1,-2.51E1,3.7E0));
#79=DIRECTION('',(0.E0,0.E0,-1.E0));
#80=DIRECTION('',(-2.199298944019E-14,-1.E0,0.E0));
#81=AXIS2_PLACEMENT_3D('',#78,#79,#80);
#83=DIRECTION('',(-1.E0,0.E0,0.E0));
#84=VECTOR('',#83,1.E1);
#85=CARTESIAN_POINT('',(-9.9E0,-2.72E1,3.7E0));
#86=LINE('',#85,#84);
#87=DIRECTION('',(1.E0,0.E0,0.E0));
#88=VECTOR('',#87,1.E1);
#89=CARTESIAN_POINT('',(9.9E0,-2.3E1,3.7E0));
#90=LINE('',#89,#88);
#91=CARTESIAN_POINT('',(9.9E0,-2.51E1,3.7E0));
#92=DIRECTION('',(0.E0,0.E0,-1.E0));
#93=DIRECTION('',(-2.030122102172E-14,-1.E0,0.E0));
#94=AXIS2_PLACEMENT_3D('',#91,#92,#93);
#96=DIRECTION('',(-1.E0,0.E0,0.E0));
#97=VECTOR('',#96,1.E1);
#98=CARTESIAN_POINT('',(1.99E1,-2.72E1,3.7E0));
#99=LINE('',#98,#97);
#100=CARTESIAN_POINT('',(1.99E1,-2.51E1,3.7E0));
#101=DIRECTION('',(0.E0,0.E0,-1.E0));
#102=DIRECTION('',(0.E0,1.E0,0.E0));
#103=AXIS2_PLACEMENT_3D('',#100,#101,#102);
#105=DIRECTION('',(1.E0,0.E0,0.E0));
#106=VECTOR('',#105,5.13E1);
#107=CARTESIAN_POINT('',(-2.565E1,-2.07E1,3.7E0));
#108=LINE('',#107,#106);
#109=DIRECTION('',(0.E0,1.E0,0.E0));
#110=VECTOR('',#109,9.8E0);
#111=CARTESIAN_POINT('',(2.565E1,-3.05E1,3.7E0));
#112=LINE('',#111,#110);
#113=DIRECTION('',(1.E0,0.E0,0.E0));
#114=VECTOR('',#113,5.13E1);
#115=CARTESIAN_POINT('',(-2.565E1,-3.05E1,3.7E0));
#116=LINE('',#115,#114);
#117=DIRECTION('',(0.E0,-1.E0,0.E0));
#118=VECTOR('',#117,9.8E0);
#119=CARTESIAN_POINT('',(-2.565E1,-2.07E1,3.7E0));
#120=LINE('',#119,#118);
#121=DIRECTION('',(0.E0,0.E0,1.E0));
#122=VECTOR('',#121,3.7E0);
#123=CARTESIAN_POINT('',(-9.9E0,-2.3E1,0.E0));
#124=LINE('',#123,#122);
#125=DIRECTION('',(0.E0,0.E0,1.E0));
#126=VECTOR('',#125,3.7E0);
#127=CARTESIAN_POINT('',(-1.99E1,-2.3E1,0.E0));
#128=LINE('',#127,#126);
#129=DIRECTION('',(0.E0,0.E0,1.E0));
#130=VECTOR('',#129,3.7E0);
#131=CARTESIAN_POINT('',(-1.99E1,-2.72E1,0.E0));
#132=LINE('',#131,#130);
#133=DIRECTION('',(0.E0,0.E0,1.E0));
#134=VECTOR('',#133,3.7E0);
#135=CARTESIAN_POINT('',(-9.9E0,-2.72E1,0.E0));
#136=LINE('',#135,#134);
#137=DIRECTION('',(0.E0,0.E0,1.E0));
#138=VECTOR('',#137,3.7E0);
#139=CARTESIAN_POINT('',(9.9E0,-2.3E1,0.E0));
#140=LINE('',#139,#138);
#141=DIRECTION('',(0.E0,0.E0,1.E0));
#142=VECTOR('',#141,3.7E0);
#143=CARTESIAN_POINT('',(9.9E0,-2.72E1,0.E0));
#144=LINE('',#143,#142);
#145=DIRECTION('',(0.E0,0.E0,1.E0));
#146=VECTOR('',#145,3.7E0);
#147=CARTESIAN_POINT('',(1.99E1,-2.72E1,0.E0));
#148=LINE('',#147,#146);
#149=DIRECTION('',(0.E0,0.E0,1.E0));
#150=VECTOR('',#149,3.7E0);
#151=CARTESIAN_POINT('',(1.99E1,-2.3E1,0.E0));
#152=LINE('',#151,#150);
#153=DIRECTION('',(0.E0,0.E0,1.E0));
#154=VECTOR('',#153,4.3E0);
#155=CARTESIAN_POINT('',(-2.565E1,-2.07E1,3.7E0));
#156=LINE('',#155,#154);
#157=DIRECTION('',(0.E0,-1.E0,0.E0));
#158=VECTOR('',#157,5.12E1);
#159=CARTESIAN_POINT('',(-2.565E1,3.05E1,8.E0));
#160=LINE('',#159,#158);
#161=DIRECTION('',(-1.E0,0.E0,0.E0));
#162=VECTOR('',#161,5.13E1);
#163=CARTESIAN_POINT('',(2.565E1,3.05E1,8.E0));
#164=LINE('',#163,#162);
#165=DIRECTION('',(0.E0,1.E0,0.E0));
#166=VECTOR('',#165,5.12E1);
#167=CARTESIAN_POINT('',(2.565E1,-2.07E1,8.E0));
#168=LINE('',#167,#166);
#169=DIRECTION('',(1.E0,0.E0,0.E0));
#170=VECTOR('',#169,5.13E1);
#171=CARTESIAN_POINT('',(-2.565E1,-2.07E1,8.E0));
#172=LINE('',#171,#170);
#173=DIRECTION('',(0.E0,-1.E0,0.E0));
#174=VECTOR('',#173,4.9E1);
#175=CARTESIAN_POINT('',(-2.45E1,2.95E1,8.E0));
#176=LINE('',#175,#174);
#177=DIRECTION('',(1.E0,0.E0,0.E0));
#178=VECTOR('',#177,4.9E1);
#179=CARTESIAN_POINT('',(-2.45E1,-1.95E1,8.E0));
#180=LINE('',#179,#178);
#181=DIRECTION('',(0.E0,1.E0,0.E0));
#182=VECTOR('',#181,4.9E1);
#183=CARTESIAN_POINT('',(2.45E1,-1.95E1,8.E0));
#184=LINE('',#183,#182);
#185=DIRECTION('',(-1.E0,0.E0,0.E0));
#186=VECTOR('',#185,4.9E1);
#187=CARTESIAN_POINT('',(2.45E1,2.95E1,8.E0));
#188=LINE('',#187,#186);
#189=DIRECTION('',(0.E0,0.E0,-1.E0));
#190=VECTOR('',#189,2.E-1);
#191=CARTESIAN_POINT('',(-2.45E1,2.95E1,8.E0));
#192=LINE('',#191,#190);
#193=DIRECTION('',(0.E0,1.776356839400E-14,-1.E0));
#194=VECTOR('',#193,2.E-1);
#195=CARTESIAN_POINT('',(2.45E1,2.95E1,8.E0));
#196=LINE('',#195,#194);
#197=DIRECTION('',(0.E0,0.E0,-1.E0));
#198=VECTOR('',#197,2.E-1);
#199=CARTESIAN_POINT('',(2.45E1,-1.95E1,8.E0));
#200=LINE('',#199,#198);
#201=DIRECTION('',(0.E0,0.E0,-1.E0));
#202=VECTOR('',#201,2.E-1);
#203=CARTESIAN_POINT('',(-2.45E1,-1.95E1,8.E0));
#204=LINE('',#203,#202);
#205=DIRECTION('',(0.E0,-1.E0,0.E0));
#206=VECTOR('',#205,4.9E1);
#207=CARTESIAN_POINT('',(-2.45E1,2.95E1,7.8E0));
#208=LINE('',#207,#206);
#209=DIRECTION('',(-1.E0,0.E0,0.E0));
#210=VECTOR('',#209,4.9E1);
#211=CARTESIAN_POINT('',(2.45E1,2.95E1,7.8E0));
#212=LINE('',#211,#210);
#213=DIRECTION('',(0.E0,1.E0,0.E0));
#214=VECTOR('',#213,4.9E1);
#215=CARTESIAN_POINT('',(2.45E1,-1.95E1,7.8E0));
#216=LINE('',#215,#214);
#217=DIRECTION('',(1.E0,0.E0,0.E0));
#218=VECTOR('',#217,4.9E1);
#219=CARTESIAN_POINT('',(-2.45E1,-1.95E1,7.8E0));
#220=LINE('',#219,#218);
#221=DIRECTION('',(0.E0,0.E0,1.E0));
#222=VECTOR('',#221,3.7E0);
#223=CARTESIAN_POINT('',(-2.565E1,-3.05E1,0.E0));
#224=LINE('',#223,#222);
#225=CARTESIAN_POINT('',(-2.565E1,3.05E1,0.E0));
#226=CARTESIAN_POINT('',(-2.565E1,-3.05E1,0.E0));
#227=VERTEX_POINT('',#225);
#228=VERTEX_POINT('',#226);
#229=CARTESIAN_POINT('',(2.565E1,-3.05E1,0.E0));
#230=VERTEX_POINT('',#229);
#231=CARTESIAN_POINT('',(2.565E1,3.05E1,0.E0));
#232=VERTEX_POINT('',#231);
#233=CARTESIAN_POINT('',(-2.565E1,-3.05E1,3.7E0));
#234=CARTESIAN_POINT('',(2.565E1,-3.05E1,3.7E0));
#235=VERTEX_POINT('',#233);
#236=VERTEX_POINT('',#234);
#237=CARTESIAN_POINT('',(-2.565E1,3.05E1,8.E0));
#238=CARTESIAN_POINT('',(-2.565E1,-2.07E1,8.E0));
#239=VERTEX_POINT('',#237);
#240=VERTEX_POINT('',#238);
#241=CARTESIAN_POINT('',(2.565E1,-2.07E1,8.E0));
#242=VERTEX_POINT('',#241);
#243=CARTESIAN_POINT('',(2.565E1,3.05E1,8.E0));
#244=VERTEX_POINT('',#243);
#245=CARTESIAN_POINT('',(-2.565E1,-2.07E1,3.7E0));
#246=CARTESIAN_POINT('',(2.565E1,-2.07E1,3.7E0));
#247=VERTEX_POINT('',#245);
#248=VERTEX_POINT('',#246);
#249=CARTESIAN_POINT('',(-2.45E1,2.95E1,7.8E0));
#250=CARTESIAN_POINT('',(-2.45E1,-1.95E1,7.8E0));
#251=VERTEX_POINT('',#249);
#252=VERTEX_POINT('',#250);
#253=CARTESIAN_POINT('',(2.45E1,-1.95E1,7.8E0));
#254=VERTEX_POINT('',#253);
#255=CARTESIAN_POINT('',(2.45E1,2.95E1,7.8E0));
#256=VERTEX_POINT('',#255);
#257=CARTESIAN_POINT('',(-2.45E1,2.95E1,8.E0));
#258=CARTESIAN_POINT('',(-2.45E1,-1.95E1,8.E0));
#259=VERTEX_POINT('',#257);
#260=VERTEX_POINT('',#258);
#261=CARTESIAN_POINT('',(2.45E1,-1.95E1,8.E0));
#262=VERTEX_POINT('',#261);
#263=CARTESIAN_POINT('',(2.45E1,2.95E1,8.E0));
#264=VERTEX_POINT('',#263);
#265=CARTESIAN_POINT('',(-9.9E0,-2.3E1,0.E0));
#266=CARTESIAN_POINT('',(-9.9E0,-2.72E1,0.E0));
#267=VERTEX_POINT('',#265);
#268=VERTEX_POINT('',#266);
#269=CARTESIAN_POINT('',(-1.99E1,-2.72E1,0.E0));
#270=VERTEX_POINT('',#269);
#271=CARTESIAN_POINT('',(-1.99E1,-2.3E1,0.E0));
#272=VERTEX_POINT('',#271);
#273=CARTESIAN_POINT('',(9.9E0,-2.3E1,0.E0));
#274=CARTESIAN_POINT('',(1.99E1,-2.3E1,0.E0));
#275=VERTEX_POINT('',#273);
#276=VERTEX_POINT('',#274);
#277=CARTESIAN_POINT('',(1.99E1,-2.72E1,0.E0));
#278=VERTEX_POINT('',#277);
#279=CARTESIAN_POINT('',(9.9E0,-2.72E1,0.E0));
#280=VERTEX_POINT('',#279);
#281=CARTESIAN_POINT('',(-9.9E0,-2.3E1,3.7E0));
#282=CARTESIAN_POINT('',(-9.9E0,-2.72E1,3.7E0));
#283=VERTEX_POINT('',#281);
#284=VERTEX_POINT('',#282);
#285=CARTESIAN_POINT('',(-1.99E1,-2.72E1,3.7E0));
#286=VERTEX_POINT('',#285);
#287=CARTESIAN_POINT('',(-1.99E1,-2.3E1,3.7E0));
#288=VERTEX_POINT('',#287);
#289=CARTESIAN_POINT('',(9.9E0,-2.3E1,3.7E0));
#290=CARTESIAN_POINT('',(1.99E1,-2.3E1,3.7E0));
#291=VERTEX_POINT('',#289);
#292=VERTEX_POINT('',#290);
#293=CARTESIAN_POINT('',(1.99E1,-2.72E1,3.7E0));
#294=VERTEX_POINT('',#293);
#295=CARTESIAN_POINT('',(9.9E0,-2.72E1,3.7E0));
#296=VERTEX_POINT('',#295);
#297=CARTESIAN_POINT('',(0.E0,0.E0,0.E0));
#298=DIRECTION('',(0.E0,0.E0,1.E0));
#299=DIRECTION('',(1.E0,0.E0,0.E0));
#300=AXIS2_PLACEMENT_3D('',#297,#298,#299);
#301=PLANE('',#300);
#303=ORIENTED_EDGE('',*,*,#302,.T.);
#305=ORIENTED_EDGE('',*,*,#304,.T.);
#307=ORIENTED_EDGE('',*,*,#306,.T.);
#309=ORIENTED_EDGE('',*,*,#308,.T.);
#310=EDGE_LOOP('',(#303,#305,#307,#309));
#311=FACE_OUTER_BOUND('',#310,.F.);
#313=ORIENTED_EDGE('',*,*,#312,.T.);
#315=ORIENTED_EDGE('',*,*,#314,.T.);
#317=ORIENTED_EDGE('',*,*,#316,.T.);
#319=ORIENTED_EDGE('',*,*,#318,.T.);
#320=EDGE_LOOP('',(#313,#315,#317,#319));
#321=FACE_BOUND('',#320,.F.);
#323=ORIENTED_EDGE('',*,*,#322,.T.);
#325=ORIENTED_EDGE('',*,*,#324,.T.);
#327=ORIENTED_EDGE('',*,*,#326,.T.);
#329=ORIENTED_EDGE('',*,*,#328,.T.);
#330=EDGE_LOOP('',(#323,#325,#327,#329));
#331=FACE_BOUND('',#330,.F.);
#332=ADVANCED_FACE('',(#311,#321,#331),#301,.F.);
#333=CARTESIAN_POINT('',(-2.565E1,3.05E1,0.E0));
#334=DIRECTION('',(-1.E0,0.E0,0.E0));
#335=DIRECTION('',(0.E0,-1.E0,0.E0));
#336=AXIS2_PLACEMENT_3D('',#333,#334,#335);
#337=PLANE('',#336);
#339=ORIENTED_EDGE('',*,*,#338,.F.);
#341=ORIENTED_EDGE('',*,*,#340,.T.);
#343=ORIENTED_EDGE('',*,*,#342,.F.);
#345=ORIENTED_EDGE('',*,*,#344,.T.);
#347=ORIENTED_EDGE('',*,*,#346,.F.);
#348=ORIENTED_EDGE('',*,*,#302,.F.);
#349=EDGE_LOOP('',(#339,#341,#343,#345,#347,#348));
#350=FACE_OUTER_BOUND('',#349,.F.);
#351=ADVANCED_FACE('',(#350),#337,.T.);
#352=CARTESIAN_POINT('',(2.565E1,3.05E1,0.E0));
#353=DIRECTION('',(0.E0,1.E0,0.E0));
#354=DIRECTION('',(-1.E0,0.E0,0.E0));
#355=AXIS2_PLACEMENT_3D('',#352,#353,#354);
#356=PLANE('',#355);
#358=ORIENTED_EDGE('',*,*,#357,.T.);
#360=ORIENTED_EDGE('',*,*,#359,.T.);
#361=ORIENTED_EDGE('',*,*,#338,.T.);
#362=ORIENTED_EDGE('',*,*,#308,.F.);
#363=EDGE_LOOP('',(#358,#360,#361,#362));
#364=FACE_OUTER_BOUND('',#363,.F.);
#365=ADVANCED_FACE('',(#364),#356,.T.);
#366=CARTESIAN_POINT('',(2.565E1,-3.05E1,0.E0));
#367=DIRECTION('',(1.E0,0.E0,0.E0));
#368=DIRECTION('',(0.E0,1.E0,0.E0));
#369=AXIS2_PLACEMENT_3D('',#366,#367,#368);
#370=PLANE('',#369);
#372=ORIENTED_EDGE('',*,*,#371,.T.);
#374=ORIENTED_EDGE('',*,*,#373,.T.);
#376=ORIENTED_EDGE('',*,*,#375,.T.);
#377=ORIENTED_EDGE('',*,*,#357,.F.);
#378=ORIENTED_EDGE('',*,*,#306,.F.);
#380=ORIENTED_EDGE('',*,*,#379,.T.);
#381=EDGE_LOOP('',(#372,#374,#376,#377,#378,#380));
#382=FACE_OUTER_BOUND('',#381,.F.);
#383=ADVANCED_FACE('',(#382),#370,.T.);
#384=CARTESIAN_POINT('',(0.E0,0.E0,3.7E0));
#385=DIRECTION('',(0.E0,0.E0,1.E0));
#386=DIRECTION('',(1.E0,0.E0,0.E0));
#387=AXIS2_PLACEMENT_3D('',#384,#385,#386);
#388=PLANE('',#387);
#390=ORIENTED_EDGE('',*,*,#389,.T.);
#391=ORIENTED_EDGE('',*,*,#371,.F.);
#393=ORIENTED_EDGE('',*,*,#392,.F.);
#394=ORIENTED_EDGE('',*,*,#344,.F.);
#395=EDGE_LOOP('',(#390,#391,#393,#394));
#396=FACE_OUTER_BOUND('',#395,.F.);
#398=ORIENTED_EDGE('',*,*,#397,.F.);
#400=ORIENTED_EDGE('',*,*,#399,.F.);
#402=ORIENTED_EDGE('',*,*,#401,.F.);
#404=ORIENTED_EDGE('',*,*,#403,.F.);
#405=EDGE_LOOP('',(#398,#400,#402,#404));
#406=FACE_BOUND('',#405,.F.);
#408=ORIENTED_EDGE('',*,*,#407,.F.);
#410=ORIENTED_EDGE('',*,*,#409,.F.);
#412=ORIENTED_EDGE('',*,*,#411,.F.);
#414=ORIENTED_EDGE('',*,*,#413,.F.);
#415=EDGE_LOOP('',(#408,#410,#412,#414));
#416=FACE_BOUND('',#415,.F.);
#417=ADVANCED_FACE('',(#396,#406,#416),#388,.T.);
#418=CARTESIAN_POINT('',(-9.9E0,-2.51E1,0.E0));
#419=DIRECTION('',(0.E0,0.E0,1.E0));
#420=DIRECTION('',(1.E0,0.E0,0.E0));
#421=AXIS2_PLACEMENT_3D('',#418,#419,#420);
#422=CYLINDRICAL_SURFACE('',#421,2.1E0);
#423=ORIENTED_EDGE('',*,*,#312,.F.);
#425=ORIENTED_EDGE('',*,*,#424,.T.);
#426=ORIENTED_EDGE('',*,*,#407,.T.);
#428=ORIENTED_EDGE('',*,*,#427,.F.);
#429=EDGE_LOOP('',(#423,#425,#426,#428));
#430=FACE_OUTER_BOUND('',#429,.F.);
#431=ADVANCED_FACE('',(#430),#422,.F.);
#432=CARTESIAN_POINT('',(-1.99E1,-2.3E1,0.E0));
#433=DIRECTION('',(0.E0,-1.E0,0.E0));
#434=DIRECTION('',(1.E0,0.E0,0.E0));
#435=AXIS2_PLACEMENT_3D('',#432,#433,#434);
#436=PLANE('',#435);
#437=ORIENTED_EDGE('',*,*,#318,.F.);
#439=ORIENTED_EDGE('',*,*,#438,.T.);
#440=ORIENTED_EDGE('',*,*,#409,.T.);
#441=ORIENTED_EDGE('',*,*,#424,.F.);
#442=EDGE_LOOP('',(#437,#439,#440,#441));
#443=FACE_OUTER_BOUND('',#442,.F.);
#444=ADVANCED_FACE('',(#443),#436,.T.);
#445=CARTESIAN_POINT('',(-1.99E1,-2.51E1,0.E0));
#446=DIRECTION('',(0.E0,0.E0,1.E0));
#447=DIRECTION('',(1.E0,0.E0,0.E0));
#448=AXIS2_PLACEMENT_3D('',#445,#446,#447);
#449=CYLINDRICAL_SURFACE('',#448,2.1E0);
#450=ORIENTED_EDGE('',*,*,#316,.F.);
#452=ORIENTED_EDGE('',*,*,#451,.T.);
#453=ORIENTED_EDGE('',*,*,#411,.T.);
#454=ORIENTED_EDGE('',*,*,#438,.F.);
#455=EDGE_LOOP('',(#450,#452,#453,#454));
#456=FACE_OUTER_BOUND('',#455,.F.);
#457=ADVANCED_FACE('',(#456),#449,.F.);
#458=CARTESIAN_POINT('',(-9.9E0,-2.72E1,0.E0));
#459=DIRECTION('',(0.E0,1.E0,0.E0));
#460=DIRECTION('',(-1.E0,0.E0,0.E0));
#461=AXIS2_PLACEMENT_3D('',#458,#459,#460);
#462=PLANE('',#461);
#463=ORIENTED_EDGE('',*,*,#314,.F.);
#464=ORIENTED_EDGE('',*,*,#427,.T.);
#465=ORIENTED_EDGE('',*,*,#413,.T.);
#466=ORIENTED_EDGE('',*,*,#451,.F.);
#467=EDGE_LOOP('',(#463,#464,#465,#466));
#468=FACE_OUTER_BOUND('',#467,.F.);
#469=ADVANCED_FACE('',(#468),#462,.T.);
#470=CARTESIAN_POINT('',(9.9E0,-2.3E1,0.E0));
#471=DIRECTION('',(0.E0,-1.E0,0.E0));
#472=DIRECTION('',(1.E0,0.E0,0.E0));
#473=AXIS2_PLACEMENT_3D('',#470,#471,#472);
#474=PLANE('',#473);
#475=ORIENTED_EDGE('',*,*,#322,.F.);
#477=ORIENTED_EDGE('',*,*,#476,.T.);
#478=ORIENTED_EDGE('',*,*,#397,.T.);
#480=ORIENTED_EDGE('',*,*,#479,.F.);
#481=EDGE_LOOP('',(#475,#477,#478,#480));
#482=FACE_OUTER_BOUND('',#481,.F.);
#483=ADVANCED_FACE('',(#482),#474,.T.);
#484=CARTESIAN_POINT('',(9.9E0,-2.51E1,0.E0));
#485=DIRECTION('',(0.E0,0.E0,1.E0));
#486=DIRECTION('',(1.E0,0.E0,0.E0));
#487=AXIS2_PLACEMENT_3D('',#484,#485,#486);
#488=CYLINDRICAL_SURFACE('',#487,2.1E0);
#489=ORIENTED_EDGE('',*,*,#328,.F.);
#491=ORIENTED_EDGE('',*,*,#490,.T.);
#492=ORIENTED_EDGE('',*,*,#399,.T.);
#493=ORIENTED_EDGE('',*,*,#476,.F.);
#494=EDGE_LOOP('',(#489,#491,#492,#493));
#495=FACE_OUTER_BOUND('',#494,.F.);
#496=ADVANCED_FACE('',(#495),#488,.F.);
#497=CARTESIAN_POINT('',(1.99E1,-2.72E1,0.E0));
#498=DIRECTION('',(0.E0,1.E0,0.E0));
#499=DIRECTION('',(-1.E0,0.E0,0.E0));
#500=AXIS2_PLACEMENT_3D('',#497,#498,#499);
#501=PLANE('',#500);
#502=ORIENTED_EDGE('',*,*,#326,.F.);
#504=ORIENTED_EDGE('',*,*,#503,.T.);
#505=ORIENTED_EDGE('',*,*,#401,.T.);
#506=ORIENTED_EDGE('',*,*,#490,.F.);
#507=EDGE_LOOP('',(#502,#504,#505,#506));
#508=FACE_OUTER_BOUND('',#507,.F.);
#509=ADVANCED_FACE('',(#508),#501,.T.);
#510=CARTESIAN_POINT('',(1.99E1,-2.51E1,0.E0));
#511=DIRECTION('',(0.E0,0.E0,1.E0));
#512=DIRECTION('',(1.E0,0.E0,0.E0));
#513=AXIS2_PLACEMENT_3D('',#510,#511,#512);
#514=CYLINDRICAL_SURFACE('',#513,2.1E0);
#515=ORIENTED_EDGE('',*,*,#324,.F.);
#516=ORIENTED_EDGE('',*,*,#479,.T.);
#517=ORIENTED_EDGE('',*,*,#403,.T.);
#518=ORIENTED_EDGE('',*,*,#503,.F.);
#519=EDGE_LOOP('',(#515,#516,#517,#518));
#520=FACE_OUTER_BOUND('',#519,.F.);
#521=ADVANCED_FACE('',(#520),#514,.F.);
#522=CARTESIAN_POINT('',(-2.565E1,-2.07E1,3.7E0));
#523=DIRECTION('',(0.E0,-1.E0,0.E0));
#524=DIRECTION('',(1.E0,0.E0,0.E0));
#525=AXIS2_PLACEMENT_3D('',#522,#523,#524);
#526=PLANE('',#525);
#527=ORIENTED_EDGE('',*,*,#389,.F.);
#528=ORIENTED_EDGE('',*,*,#342,.T.);
#530=ORIENTED_EDGE('',*,*,#529,.T.);
#531=ORIENTED_EDGE('',*,*,#373,.F.);
#532=EDGE_LOOP('',(#527,#528,#530,#531));
#533=FACE_OUTER_BOUND('',#532,.F.);
#534=ADVANCED_FACE('',(#533),#526,.T.);
#535=CARTESIAN_POINT('',(0.E0,0.E0,8.E0));
#536=DIRECTION('',(0.E0,0.E0,1.E0));
#537=DIRECTION('',(1.E0,0.E0,0.E0));
#538=AXIS2_PLACEMENT_3D('',#535,#536,#537);
#539=PLANE('',#538);
#540=ORIENTED_EDGE('',*,*,#340,.F.);
#541=ORIENTED_EDGE('',*,*,#359,.F.);
#542=ORIENTED_EDGE('',*,*,#375,.F.);
#543=ORIENTED_EDGE('',*,*,#529,.F.);
#544=EDGE_LOOP('',(#540,#541,#542,#543));
#545=FACE_OUTER_BOUND('',#544,.F.);
#547=ORIENTED_EDGE('',*,*,#546,.T.);
#549=ORIENTED_EDGE('',*,*,#548,.T.);
#551=ORIENTED_EDGE('',*,*,#550,.T.);
#553=ORIENTED_EDGE('',*,*,#552,.T.);
#554=EDGE_LOOP('',(#547,#549,#551,#553));
#555=FACE_BOUND('',#554,.F.);
#556=ADVANCED_FACE('',(#545,#555),#539,.T.);
#557=CARTESIAN_POINT('',(-2.45E1,2.95E1,8.E0));
#558=DIRECTION('',(-1.E0,0.E0,0.E0));
#559=DIRECTION('',(0.E0,-1.E0,0.E0));
#560=AXIS2_PLACEMENT_3D('',#557,#558,#559);
#561=PLANE('',#560);
#562=ORIENTED_EDGE('',*,*,#546,.F.);
#564=ORIENTED_EDGE('',*,*,#563,.T.);
#566=ORIENTED_EDGE('',*,*,#565,.T.);
#568=ORIENTED_EDGE('',*,*,#567,.F.);
#569=EDGE_LOOP('',(#562,#564,#566,#568));
#570=FACE_OUTER_BOUND('',#569,.F.);
#571=ADVANCED_FACE('',(#570),#561,.F.);
#572=CARTESIAN_POINT('',(2.45E1,2.95E1,8.E0));
#573=DIRECTION('',(0.E0,1.E0,0.E0));
#574=DIRECTION('',(-1.E0,0.E0,0.E0));
#575=AXIS2_PLACEMENT_3D('',#572,#573,#574);
#576=PLANE('',#575);
#577=ORIENTED_EDGE('',*,*,#552,.F.);
#579=ORIENTED_EDGE('',*,*,#578,.T.);
#581=ORIENTED_EDGE('',*,*,#580,.T.);
#582=ORIENTED_EDGE('',*,*,#563,.F.);
#583=EDGE_LOOP('',(#577,#579,#581,#582));
#584=FACE_OUTER_BOUND('',#583,.F.);
#585=ADVANCED_FACE('',(#584),#576,.F.);
#586=CARTESIAN_POINT('',(2.45E1,-1.95E1,8.E0));
#587=DIRECTION('',(1.E0,0.E0,0.E0));
#588=DIRECTION('',(0.E0,1.E0,0.E0));
#589=AXIS2_PLACEMENT_3D('',#586,#587,#588);
#590=PLANE('',#589);
#591=ORIENTED_EDGE('',*,*,#550,.F.);
#593=ORIENTED_EDGE('',*,*,#592,.T.);
#595=ORIENTED_EDGE('',*,*,#594,.T.);
#596=ORIENTED_EDGE('',*,*,#578,.F.);
#597=EDGE_LOOP('',(#591,#593,#595,#596));
#598=FACE_OUTER_BOUND('',#597,.F.);
#599=ADVANCED_FACE('',(#598),#590,.F.);
#600=CARTESIAN_POINT('',(-2.45E1,-1.95E1,8.E0));
#601=DIRECTION('',(0.E0,-1.E0,0.E0));
#602=DIRECTION('',(1.E0,0.E0,0.E0));
#603=AXIS2_PLACEMENT_3D('',#600,#601,#602);
#604=PLANE('',#603);
#605=ORIENTED_EDGE('',*,*,#548,.F.);
#606=ORIENTED_EDGE('',*,*,#567,.T.);
#608=ORIENTED_EDGE('',*,*,#607,.T.);
#609=ORIENTED_EDGE('',*,*,#592,.F.);
#610=EDGE_LOOP('',(#605,#606,#608,#609));
#611=FACE_OUTER_BOUND('',#610,.F.);
#612=ADVANCED_FACE('',(#611),#604,.F.);
#613=CARTESIAN_POINT('',(0.E0,0.E0,7.8E0));
#614=DIRECTION('',(0.E0,0.E0,1.E0));
#615=DIRECTION('',(1.E0,0.E0,0.E0));
#616=AXIS2_PLACEMENT_3D('',#613,#614,#615);
#617=PLANE('',#616);
#618=ORIENTED_EDGE('',*,*,#565,.F.);
#619=ORIENTED_EDGE('',*,*,#580,.F.);
#620=ORIENTED_EDGE('',*,*,#594,.F.);
#621=ORIENTED_EDGE('',*,*,#607,.F.);
#622=EDGE_LOOP('',(#618,#619,#620,#621));
#623=FACE_OUTER_BOUND('',#622,.F.);
#624=ADVANCED_FACE('',(#623),#617,.T.);
#625=CARTESIAN_POINT('',(-2.565E1,-3.05E1,0.E0));
#626=DIRECTION('',(0.E0,-1.E0,0.E0));
#627=DIRECTION('',(1.E0,0.E0,0.E0));
#628=AXIS2_PLACEMENT_3D('',#625,#626,#627);
#629=PLANE('',#628);
#630=ORIENTED_EDGE('',*,*,#304,.F.);
#631=ORIENTED_EDGE('',*,*,#346,.T.);
#632=ORIENTED_EDGE('',*,*,#392,.T.);
#633=ORIENTED_EDGE('',*,*,#379,.F.);
#634=EDGE_LOOP('',(#630,#631,#632,#633));
#635=FACE_OUTER_BOUND('',#634,.F.);
#636=ADVANCED_FACE('',(#635),#629,.T.);
#640=DIMENSIONAL_EXPONENTS(0.E0,0.E0,0.E0,0.E0,0.E0,0.E0,0.E0);
#642=PLANE_ANGLE_MEASURE_WITH_UNIT(PLANE_ANGLE_MEASURE(1.745329251994E-2),#641);
#643=(CONVERSION_BASED_UNIT('DEGREE',#642)NAMED_UNIT(*)PLANE_ANGLE_UNIT());
#645=UNCERTAINTY_MEASURE_WITH_UNIT(LENGTH_MEASURE(8.767063346359E-3),#639,
'closure',
'Maximum model space distance between geometric entities at asserted connectivities');
#646=(GEOMETRIC_REPRESENTATION_CONTEXT(3)GLOBAL_UNCERTAINTY_ASSIGNED_CONTEXT((
#645))GLOBAL_UNIT_ASSIGNED_CONTEXT((#639,#643,#644))REPRESENTATION_CONTEXT
('ID1','3'));
#647=CARTESIAN_POINT('',(0.E0,0.E0,0.E0));
#648=DIRECTION('',(0.E0,0.E0,1.E0));
#649=DIRECTION('',(1.E0,0.E0,0.E0));
#652=APPLICATION_CONTEXT(
'CONFIGURATION CONTROLLED 3D DESIGNS OF MECHANICAL PARTS AND ASSEMBLIES');
#653=APPLICATION_PROTOCOL_DEFINITION('international standard',
'config_control_design',1994,#652);
#654=DESIGN_CONTEXT('',#652,'design');
#655=MECHANICAL_CONTEXT('',#652,'mechanical');
#656=PRODUCT('40071','40071','NOT SPECIFIED',(#655));
#657=PRODUCT_DEFINITION_FORMATION_WITH_SPECIFIED_SOURCE('1','LAST_VERSION',#656,
.MADE.);
#666=CARTESIAN_POINT('',(0.E0,0.E0,0.E0));
#667=DIRECTION('',(0.E0,0.E0,1.E0));
#668=DIRECTION('',(1.E0,0.E0,0.E0));
#669=AXIS2_PLACEMENT_3D('',#666,#667,#668);
#670=ITEM_DEFINED_TRANSFORMATION('','',#650,#669);
#671=(REPRESENTATION_RELATIONSHIP('','',#651,#663)REPRESENTATION_RELATIONSHIP_WITH_TRANSFORMATION(#670)SHAPE_REPRESENTATION_RELATIONSHIP());
#672=CONTEXT_DEPENDENT_SHAPE_REPRESENTATION(#671,#665);
#674=DIMENSIONAL_EXPONENTS(0.E0,0.E0,0.E0,0.E0,0.E0,0.E0,0.E0);
#676=PLANE_ANGLE_MEASURE_WITH_UNIT(PLANE_ANGLE_MEASURE(1.745329251994E-2),#675);
#677=(CONVERSION_BASED_UNIT('DEGREE',#676)NAMED_UNIT(*)PLANE_ANGLE_UNIT());
#679=UNCERTAINTY_MEASURE_WITH_UNIT(LENGTH_MEASURE(8.010104041189E-3),#673,
'closure',
'Maximum model space distance between geometric entities at asserted connectivities');
#680=(GEOMETRIC_REPRESENTATION_CONTEXT(3)GLOBAL_UNCERTAINTY_ASSIGNED_CONTEXT((
#679))GLOBAL_UNIT_ASSIGNED_CONTEXT((#673,#677,#678))REPRESENTATION_CONTEXT
('ID2','3'));
#681=CARTESIAN_POINT('',(0.E0,0.E0,0.E0));
#682=DIRECTION('',(0.E0,0.E0,1.E0));
#683=DIRECTION('',(1.E0,0.E0,0.E0));
#685=MECHANICAL_CONTEXT('',#652,'mechanical');
#686=PRODUCT('156816_ASM','156816_ASM','NOT SPECIFIED',(#685));
#687=PRODUCT_DEFINITION_FORMATION_WITH_SPECIFIED_SOURCE('1','LAST_VERSION',#686,
.MADE.);
#689=PRODUCT_CATEGORY('part','');
#690=PRODUCT_RELATED_PRODUCT_CATEGORY('assembly','',(#686));
#691=PRODUCT_CATEGORY_RELATIONSHIP('','',#689,#690);
#692=PRODUCT_CATEGORY('part','');
#693=PRODUCT_RELATED_PRODUCT_CATEGORY('detail','',(#656));
#694=PRODUCT_CATEGORY_RELATIONSHIP('','',#692,#693);
#695=SECURITY_CLASSIFICATION_LEVEL('unclassified');
#696=SECURITY_CLASSIFICATION('','',#695);
#697=CC_DESIGN_SECURITY_CLASSIFICATION(#696,(#657,#687,#664));
#698=APPROVAL_STATUS('approved');
#699=APPROVAL(#698,'');
#700=CC_DESIGN_APPROVAL(#699,(#696,#657,#687,#658,#688));
#701=CALENDAR_DATE(123,30,11);
#702=COORDINATED_UNIVERSAL_TIME_OFFSET(6,0,.BEHIND.);
#703=LOCAL_TIME(8,55,5.2E1,#702);
#704=DATE_AND_TIME(#701,#703);
#705=APPROVAL_DATE_TIME(#704,#699);
#706=DATE_TIME_ROLE('creation_date');
#707=CC_DESIGN_DATE_AND_TIME_ASSIGNMENT(#704,#706,(#658,#688));
#708=DATE_TIME_ROLE('classification_date');
#709=CC_DESIGN_DATE_AND_TIME_ASSIGNMENT(#704,#708,(#696));
#710=PERSON('UNSPECIFIED','UNSPECIFIED',$,$,$,$);
#711=ORGANIZATION('UNSPECIFIED','UNSPECIFIED','UNSPECIFIED');
#712=PERSON_AND_ORGANIZATION(#710,#711);
#713=APPROVAL_ROLE('approver');
#714=APPROVAL_PERSON_ORGANIZATION(#712,#699,#713);
#715=PERSON_AND_ORGANIZATION_ROLE('creator');
#716=CC_DESIGN_PERSON_AND_ORGANIZATION_ASSIGNMENT(#712,#715,(#657,#687,#658,
#688));
#717=PERSON_AND_ORGANIZATION_ROLE('design_supplier');
#718=CC_DESIGN_PERSON_AND_ORGANIZATION_ASSIGNMENT(#712,#717,(#657,#687));
#719=PERSON_AND_ORGANIZATION_ROLE('classification_officer');
#720=CC_DESIGN_PERSON_AND_ORGANIZATION_ASSIGNMENT(#712,#719,(#696));
#721=PERSON_AND_ORGANIZATION_ROLE('design_owner');
#722=CC_DESIGN_PERSON_AND_ORGANIZATION_ASSIGNMENT(#712,#721,(#686,#656));
#21=CIRCLE('',#20,2.1E0);
#30=CIRCLE('',#29,2.1E0);
#43=CIRCLE('',#42,2.1E0);
#52=CIRCLE('',#51,2.1E0);
#73=CIRCLE('',#72,2.1E0);
#82=CIRCLE('',#81,2.1E0);
#95=CIRCLE('',#94,2.1E0);
#104=CIRCLE('',#103,2.1E0);
#302=EDGE_CURVE('',#227,#228,#4,.T.);
#304=EDGE_CURVE('',#228,#230,#8,.T.);
#306=EDGE_CURVE('',#230,#232,#12,.T.);
#308=EDGE_CURVE('',#232,#227,#16,.T.);
#312=EDGE_CURVE('',#267,#268,#21,.T.);
#314=EDGE_CURVE('',#268,#270,#25,.T.);
#316=EDGE_CURVE('',#270,#272,#30,.T.);
#318=EDGE_CURVE('',#272,#267,#34,.T.);
#322=EDGE_CURVE('',#275,#276,#38,.T.);
#324=EDGE_CURVE('',#276,#278,#43,.T.);
#326=EDGE_CURVE('',#278,#280,#47,.T.);
#328=EDGE_CURVE('',#280,#275,#52,.T.);
#338=EDGE_CURVE('',#239,#227,#60,.T.);
#340=EDGE_CURVE('',#239,#240,#160,.T.);
#342=EDGE_CURVE('',#247,#240,#156,.T.);
#344=EDGE_CURVE('',#247,#235,#120,.T.);
#346=EDGE_CURVE('',#228,#235,#224,.T.);
#357=EDGE_CURVE('',#232,#244,#56,.T.);
#359=EDGE_CURVE('',#244,#239,#164,.T.);
#371=EDGE_CURVE('',#236,#248,#112,.T.);
#373=EDGE_CURVE('',#248,#242,#64,.T.);
#375=EDGE_CURVE('',#242,#244,#168,.T.);
#379=EDGE_CURVE('',#230,#236,#68,.T.);
#389=EDGE_CURVE('',#247,#248,#108,.T.);
#392=EDGE_CURVE('',#235,#236,#116,.T.);
#397=EDGE_CURVE('',#291,#292,#90,.T.);
#399=EDGE_CURVE('',#296,#291,#95,.T.);
#401=EDGE_CURVE('',#294,#296,#99,.T.);
#403=EDGE_CURVE('',#292,#294,#104,.T.);
#407=EDGE_CURVE('',#283,#284,#73,.T.);
#409=EDGE_CURVE('',#288,#283,#77,.T.);
#411=EDGE_CURVE('',#286,#288,#82,.T.);
#413=EDGE_CURVE('',#284,#286,#86,.T.);
#424=EDGE_CURVE('',#267,#283,#124,.T.);
#427=EDGE_CURVE('',#268,#284,#136,.T.);
#438=EDGE_CURVE('',#272,#288,#128,.T.);
#451=EDGE_CURVE('',#270,#286,#132,.T.);
#476=EDGE_CURVE('',#275,#291,#140,.T.);
#479=EDGE_CURVE('',#276,#292,#152,.T.);
#490=EDGE_CURVE('',#280,#296,#144,.T.);
#503=EDGE_CURVE('',#278,#294,#148,.T.);
#529=EDGE_CURVE('',#240,#242,#172,.T.);
#546=EDGE_CURVE('',#259,#260,#176,.T.);
#548=EDGE_CURVE('',#260,#262,#180,.T.);
#550=EDGE_CURVE('',#262,#264,#184,.T.);
#552=EDGE_CURVE('',#264,#259,#188,.T.);
#563=EDGE_CURVE('',#259,#251,#192,.T.);
#565=EDGE_CURVE('',#251,#252,#208,.T.);
#567=EDGE_CURVE('',#260,#252,#204,.T.);
#578=EDGE_CURVE('',#264,#256,#196,.T.);
#580=EDGE_CURVE('',#256,#251,#212,.T.);
#592=EDGE_CURVE('',#262,#254,#200,.T.);
#594=EDGE_CURVE('',#254,#256,#216,.T.);
#607=EDGE_CURVE('',#252,#254,#220,.T.);
#637=CLOSED_SHELL('',(#332,#351,#365,#383,#417,#431,#444,#457,#469,#483,#496,
#509,#521,#534,#556,#571,#585,#599,#612,#624,#636));
#638=MANIFOLD_SOLID_BREP('',#637);
#639=(LENGTH_UNIT()NAMED_UNIT(*)SI_UNIT(.MILLI.,.METRE.));
#641=(NAMED_UNIT(*)PLANE_ANGLE_UNIT()SI_UNIT($,.RADIAN.));
#644=(NAMED_UNIT(*)SI_UNIT($,.STERADIAN.)SOLID_ANGLE_UNIT());
#650=AXIS2_PLACEMENT_3D('',#647,#648,#649);
#651=ADVANCED_BREP_SHAPE_REPRESENTATION('',(#650,#638),#646);
#658=PRODUCT_DEFINITION('design','',#657,#654);
#659=PRODUCT_DEFINITION_SHAPE('','SHAPE FOR 40071.',#658);
#660=SHAPE_DEFINITION_REPRESENTATION(#659,#651);
#661=SHAPE_DEFINITION_REPRESENTATION(#662,#663);
#662=PRODUCT_DEFINITION_SHAPE('','SHAPE FOR 156816_ASM.',#688);
#663=SHAPE_REPRESENTATION('',(#669,#684),#680);
#664=NEXT_ASSEMBLY_USAGE_OCCURRENCE('0','Next assembly relationship','40071',
#688,#658,$);
#665=PRODUCT_DEFINITION_SHAPE('Placement #0',
'Placement of 40071 with respect to 156816_ASM',#664);
#673=(LENGTH_UNIT()NAMED_UNIT(*)SI_UNIT(.MILLI.,.METRE.));
#675=(NAMED_UNIT(*)PLANE_ANGLE_UNIT()SI_UNIT($,.RADIAN.));
#678=(NAMED_UNIT(*)SI_UNIT($,.STERADIAN.)SOLID_ANGLE_UNIT());
#684=AXIS2_PLACEMENT_3D('',#681,#682,#683);
#688=PRODUCT_DEFINITION('design','',#687,#654);
ENDSEC;
END-ISO-10303-21;
