 PTC IGES file: 156802.igs                                              S      1
1H,,1H;,9H156802_SW,10H156802.igs,                                      G      1
49HPro/ENGINEER by Parametric Technology Corporation,7H2009141,32,38,7, G      2
38,15,9H156802_SW,1.,1,4HINCH,32768,0.5,15H20111006.110020,0.000140828, G      3
1.40833,13Hbanengservice,7HUnknown,10,0,15H20111006.110020;             G      4
     314       1       1       1       0       0       0       001000200D      1
     314       0       4       1       0                   COLOR       1D      2
     314       2       1       1       0       0       0       001000200D      3
     314       0       1       1       0                   COLOR       2D      4
     314       3       1       1       0       0       0       001000200D      5
     314       0       1       1       0                   COLOR       3D      6
     314       4       1       1       0       0       0       001000200D      7
     314       0       1       1       0                   COLOR       4D      8
     314       5       1       1       0       0       0       001000200D      9
     314       0       8       1       0                   COLOR       5D     10
     314       6       1       1       0       0       0       001000200D     11
     314       0       8       1       0                   COLOR       6D     12
     314       7       1       1       0       0       0       001000200D     13
     314       0       5       1       0                   COLOR       7D     14
     314       8       1       1       0       0       0       001000200D     15
     314       0       8       1       0                   COLOR       8D     16
     124       9       1       1       0       0       0       001000000D     17
     124       0       0       1       0                   XFORM       1D     18
     100      10       1       1       0       0      17       001010000D     19
     100       0       0       1       0                     ARC       1D     20
     124      11       1       1       0       0       0       001000000D     21
     124       0       0       1       0                   XFORM       2D     22
     100      12       1       1       0       0      21       001010000D     23
     100       0       0       1       0                     ARC       2D     24
     110      13       1       1       0       0       0       001010000D     25
     110       0       0       2       0                    LINE       1D     26
     110      15       1       1       0       0       0       001010000D     27
     110       0       0       2       0                    LINE       2D     28
     124      17       1       1       0       0       0       001000000D     29
     124       0       0       2       0                   XFORM       3D     30
     100      19       1       1       0       0      29       001010000D     31
     100       0       0       1       0                     ARC       3D     32
     124      20       1       1       0       0       0       001000000D     33
     124       0       0       1       0                   XFORM       4D     34
     100      21       1       1       0       0      33       001010000D     35
     100       0       0       1       0                     ARC       4D     36
     110      22       1       1       0       0       0       001010000D     37
     110       0       0       2       0                    LINE       3D     38
     124      24       1       1       0       0       0       001000000D     39
     124       0       0       2       0                   XFORM       5D     40
     100      26       1       1       0       0      39       001010000D     41
     100       0       0       1       0                     ARC       5D     42
     124      27       1       1       0       0       0       001000000D     43
     124       0       0       1       0                   XFORM       6D     44
     100      28       1       1       0       0      43       001010000D     45
     100       0       0       1       0                     ARC       6D     46
     110      29       1       1       0       0       0       001010000D     47
     110       0       0       2       0                    LINE       4D     48
     124      31       1       1       0       0       0       001000000D     49
     124       0       0       1       0                   XFORM       7D     50
     100      32       1       1       0       0      49       001010000D     51
     100       0       0       1       0                     ARC       7D     52
     124      33       1       1       0       0       0       001000000D     53
     124       0       0       1       0                   XFORM       8D     54
     100      34       1       1       0       0      53       001010000D     55
     100       0       0       1       0                     ARC       8D     56
     110      35       1       1       0       0       0       001010000D     57
     110       0       0       1       0                    LINE       5D     58
     110      36       1       1       0       0       0       001010000D     59
     110       0       0       1       0                    LINE       6D     60
     124      37       1       1       0       0       0       001000000D     61
     124       0       0       1       0                   XFORM       9D     62
     100      38       1       1       0       0      61       001010000D     63
     100       0       0       1       0                     ARC       9D     64
     124      39       1       1       0       0       0       001000000D     65
     124       0       0       1       0                   XFORM      10D     66
     100      40       1       1       0       0      65       001010000D     67
     100       0       0       1       0                     ARC      10D     68
     502      41       1       1       0       0       0       001010000D     69
     502       0       0       5       1                  VERTEX       1D     70
     504      46       1       1       0       0       0       000010001D     71
     504       0       0       4       1                    EDGE       1D     72
     128      50       1       1       0       0       0       001010000D     73
     128       0       8       7       0                  SPLSRF       1D     74
     508      57       1       1       0       0       0       001010000D     75
     508       0       0       1       1                EDGELOOP       1D     76
     510      58       1       1       0       0       0       000010000D     77
     510       0       8       1       1                    FACE       1D     78
     110      59       1       1       0       0       0       001010000D     79
     110       0       0       1       0                    LINE       7D     80
     110      60       1       1       0       0       0       001010000D     81
     110       0       0       2       0                    LINE       8D     82
     120      62       1       1       0       0       0       001010000D     83
     120       0       0       1       0                    SREV       1D     84
     508      63       1       1       0       0       0       001010000D     85
     508       0       0       1       1                EDGELOOP       2D     86
     510      64       1       1       0       0       0       000010000D     87
     510       0       0       1       1                    FACE       2D     88
     110      65       1       1       0       0       0       001010000D     89
     110       0       0       1       0                    LINE       9D     90
     110      66       1       1       0       0       0       001010000D     91
     110       0       0       2       0                    LINE      10D     92
     120      68       1       1       0       0       0       001010000D     93
     120       0       0       1       0                    SREV       2D     94
     508      69       1       1       0       0       0       001010000D     95
     508       0       0       1       1                EDGELOOP       3D     96
     510      70       1       1       0       0       0       000010000D     97
     510       0       0       1       1                    FACE       3D     98
     110      71       1       1       0       0       0       001010000D     99
     110       0       0       1       0                    LINE      11D    100
     110      72       1       1       0       0       0       001010000D    101
     110       0       0       2       0                    LINE      12D    102
     120      74       1       1       0       0       0       001010000D    103
     120       0       0       1       0                    SREV       3D    104
     508      75       1       1       0       0       0       001010000D    105
     508       0       0       1       1                EDGELOOP       4D    106
     510      76       1       1       0       0       0       000010000D    107
     510       0       0       1       1                    FACE       4D    108
     110      77       1       1       0       0       0       001010000D    109
     110       0       0       1       0                    LINE      13D    110
     110      78       1       1       0       0       0       001010000D    111
     110       0       0       2       0                    LINE      14D    112
     120      80       1       1       0       0       0       001010000D    113
     120       0       0       1       0                    SREV       4D    114
     508      81       1       1       0       0       0       001010000D    115
     508       0       0       1       1                EDGELOOP       5D    116
     510      82       1       1       0       0       0       000010000D    117
     510       0       0       1       1                    FACE       5D    118
     128      83       1       1       0       0       0       001010000D    119
     128       0       0       6       0                  SPLSRF       2D    120
     508      89       1       1       0       0       0       001010000D    121
     508       0       0       1       1                EDGELOOP       6D    122
     508      90       1       1       0       0       0       001010000D    123
     508       0       0       1       1                EDGELOOP       7D    124
     510      91       1       1       0       0       0       000010000D    125
     510       0       0       1       1                    FACE       6D    126
     110      92       1       1       0       0       0       001010000D    127
     110       0       0       1       0                    LINE      15D    128
     110      93       1       1       0       0       0       001010000D    129
     110       0       0       1       0                    LINE      16D    130
     120      94       1       1       0       0       0       001010000D    131
     120       0       0       1       0                    SREV       5D    132
     508      95       1       1       0       0       0       001010000D    133
     508       0       0       1       1                EDGELOOP       8D    134
     510      96       1       1       0       0       0       000010000D    135
     510       0       0       1       1                    FACE       7D    136
     110      97       1       1       0       0       0       001010000D    137
     110       0       0       1       0                    LINE      17D    138
     110      98       1       1       0       0       0       001010000D    139
     110       0       0       1       0                    LINE      18D    140
     120      99       1       1       0       0       0       001010000D    141
     120       0       0       1       0                    SREV       6D    142
     508     100       1       1       0       0       0       001010000D    143
     508       0       0       1       1                EDGELOOP       9D    144
     510     101       1       1       0       0       0       000010000D    145
     510       0       0       1       1                    FACE       8D    146
     128     102       1       1       0       0       0       001010000D    147
     128       0       0       7       0                  SPLSRF       3D    148
     508     109       1       1       0       0       0       001010000D    149
     508       0       0       1       1                EDGELOOP      10D    150
     510     110       1       1       0       0       0       000010000D    151
     510       0       0       1       1                    FACE       9D    152
     514     111       1       1       0       0       0       000010000D    153
     514       0       0       1       1                   SHELL       1D    154
     186     112       1       1       0       0       0       000000000D    155
     186       0       0       1       0                    MSBR       1D    156
314,1.1D0,1.2D0,1D2;                                                   1P      1
314,1.1D1,1.1D1,1.1D1;                                                 3P      2
314,3.92D1,1.2D0,1.2D0;                                                5P      3
314,4.1D1,0D0,2.2D1;                                                   7P      4
314,8.784D1,9.49D1,1D2;                                                9P      5
314,9.6D1,9.6D1,9.6D1;                                                11P      6
314,9.8D1,6.27D1,0D0;                                                 13P      7
314,1D2,1D2,9.49D1;                                                   15P      8
124,-1D0,0D0,0D0,0D0,0D0,-1D0,0D0,0D0,0D0,0D0,1D0,1.0827D-1;          17P      9
100,0D0,0D0,0D0,4.524999217489D-1,0D0,-4.524999217489D-1,0D0;         19P     10
124,1D0,0D0,0D0,0D0,0D0,1D0,0D0,0D0,0D0,0D0,1D0,1.0827D-1;            21P     11
100,0D0,0D0,0D0,4.524999217489D-1,0D0,-4.524999217489D-1,0D0;         23P     12
110,-4.524999869570D-1,-2.922138614713D-11,1.082699774115D-1,         25P     13
-4.724999897854D-1,-2.288476105148D-11,9.672297692604D-2;             25P     14
110,4.524999869570D-1,2.922178857098D-11,1.082699774115D-1,           27P     15
4.724999897854D-1,2.288490493087D-11,9.672297692604D-2;               27P     16
124,1D0,0D0,0D0,0D0,0D0,1D0,0D0,0D0,0D0,0D0,1D0,                      29P     17
9.672294744109D-2;                                                    29P     18
100,0D0,0D0,0D0,4.725D-1,0D0,-4.725D-1,0D0;                           31P     19
124,1D0,0D0,0D0,0D0,0D0,1D0,0D0,0D0,0D0,0D0,1D0,0D0;                  33P     20
100,0D0,0D0,0D0,4.725D-1,0D0,-4.725D-1,0D0;                           35P     21
110,4.725D-1,0D0,0D0,4.724999897854D-1,2.288490493087D-11,            37P     22
9.672297692604D-2;                                                    37P     23
124,-1D0,0D0,0D0,0D0,0D0,-1D0,0D0,0D0,0D0,0D0,1D0,                    39P     24
9.672294744109D-2;                                                    39P     25
100,0D0,0D0,0D0,4.725D-1,0D0,-4.725D-1,0D0;                           41P     26
124,-1D0,0D0,0D0,0D0,0D0,-1D0,0D0,0D0,0D0,0D0,1D0,0D0;                43P     27
100,0D0,0D0,0D0,4.725D-1,0D0,-4.725D-1,0D0;                           45P     28
110,-4.725D-1,0D0,0D0,-4.724999897854D-1,-2.288476105148D-11,         47P     29
9.672297692604D-2;                                                    47P     30
124,-1D0,0D0,0D0,0D0,0D0,1D0,0D0,0D0,0D0,0D0,-1D0,0D0;                49P     31
100,0D0,0D0,0D0,4.92D-1,0D0,-4.92D-1,0D0;                             51P     32
124,1D0,0D0,0D0,0D0,0D0,-1D0,0D0,0D0,0D0,0D0,-1D0,0D0;                53P     33
100,0D0,0D0,0D0,4.92D-1,0D0,-4.92D-1,0D0;                             55P     34
110,-4.92D-1,0D0,0D0,-4.92D-1,0D0,-1.0827D-1;                         57P     35
110,4.92D-1,0D0,0D0,4.92D-1,0D0,-1.0827D-1;                           59P     36
124,-1D0,0D0,0D0,0D0,0D0,1D0,0D0,0D0,0D0,0D0,-1D0,-1.0827D-1;         61P     37
100,0D0,0D0,0D0,4.92D-1,0D0,-4.92D-1,0D0;                             63P     38
124,1D0,0D0,0D0,0D0,0D0,-1D0,0D0,0D0,0D0,0D0,-1D0,-1.0827D-1;         65P     39
100,0D0,0D0,0D0,4.92D-1,0D0,-4.92D-1,0D0;                             67P     40
502,10,-4.92D-1,0D0,0D0,4.92D-1,0D0,0D0,-4.92D-1,0D0,-1.0827D-1,      69P     41
4.92D-1,0D0,-1.0827D-1,4.725D-1,0D0,0D0,-4.725D-1,0D0,0D0,            69P     42
-4.524999217489D-1,0D0,1.0827D-1,4.524999217489D-1,0D0,               69P     43
1.0827D-1,-4.725D-1,0D0,9.672294744109D-2,4.725D-1,0D0,               69P     44
9.672294744109D-2;                                                    69P     45
504,16,51,69,1,69,2,55,69,2,69,1,63,69,3,69,4,67,69,4,69,3,57,        71P     46
69,1,69,3,59,69,2,69,4,35,69,5,69,6,45,69,6,69,5,19,69,7,69,8,        71P     47
41,69,9,69,10,23,69,8,69,7,31,69,10,69,9,37,69,5,69,10,47,69,6,       71P     48
69,9,27,69,8,69,10,25,69,7,69,9;                                      71P     49
128,1,1,1,1,0,0,1,0,0,-4.706D-1,-4.706D-1,4.706D-1,4.706D-1,          73P     50
-4.709240615494D-1,-4.709240615494D-1,4.709240615493D-1,              73P     51
4.709240615493D-1,1D0,1D0,1D0,1D0,-4.706D-1,-4.709240615494D-1,       73P     52
1.0827D-1,4.706D-1,-4.709240615494D-1,1.0827D-1,-4.706D-1,            73P     53
4.709240615493D-1,1.0827D-1,4.706D-1,4.709240615493D-1,               73P     54
1.0827D-1,-4.706D-1,4.706D-1,-4.709240615494D-1,                      73P     55
4.709240615493D-1;                                                    73P     56
508,2,0,71,9,0,0,0,71,11,0,0;                                         75P     57
510,73,1,0,75;                                                        77P     58
110,0D0,0D0,3.695209968083D-1,0D0,0D0,-6.304790031917D-1;             79P     59
110,0D0,-4.510363336393D-1,1.091150031352D-1,0D0,                     81P     60
-4.739635844256D-1,9.587794643285D-2;                                 81P     61
120,79,81,-1.633628180747D0,1.633628180553D0;                         83P     62
508,4,0,71,9,1,0,0,71,15,1,0,0,71,10,0,0,0,71,16,0,0;                 85P     63
510,83,1,0,85;                                                        87P     64
110,0D0,0D0,3.695209968083D-1,0D0,0D0,-6.304790031917D-1;             89P     65
110,0D0,-4.510363336393D-1,1.091150031352D-1,0D0,                     91P     66
-4.739635844256D-1,9.587794643285D-2;                                 91P     67
120,89,91,-4.775220834336D0,-1.507964473037D0;                        93P     68
508,4,0,71,11,1,0,0,71,16,1,0,0,71,12,0,0,0,71,15,0,0;                95P     69
510,93,1,0,95;                                                        97P     70
110,0D0,0D0,0D0,0D0,0D0,1D0;                                          99P     71
110,4.725D-1,0D0,-1.934459892324D-3,4.725D-1,0D0,                    101P     72
9.865745450853D-2;                                                   101P     73
120,99,101,-6.283185307180D-2,3.204424506662D0;                      103P     74
508,4,0,71,12,1,0,0,71,14,0,0,0,71,7,0,0,0,71,13,1,0;                105P     75
510,103,1,0,105;                                                     107P     76
110,0D0,0D0,0D0,0D0,0D0,1D0;                                         109P     77
110,4.725D-1,0D0,-1.934459892324D-3,4.725D-1,0D0,                    111P     78
9.865745450853D-2;                                                   111P     79
120,109,111,3.078760800518D0,6.346017160251D0;                       113P     80
508,4,0,71,10,1,0,0,71,13,0,0,0,71,8,0,0,0,71,14,1,0;                115P     81
510,113,1,0,115;                                                     117P     82
128,1,1,1,1,0,0,1,0,0,-5.1168D-1,-5.1168D-1,5.1168D-1,5.1168D-1,     119P     83
-5.120324225353D-1,-5.120324225353D-1,5.120324225353D-1,             119P     84
5.120324225353D-1,1D0,1D0,1D0,1D0,5.1168D-1,-5.120324225353D-1,      119P     85
0D0,-5.1168D-1,-5.120324225353D-1,0D0,5.1168D-1,                     119P     86
5.120324225353D-1,0D0,-5.1168D-1,5.120324225353D-1,0D0,              119P     87
-5.1168D-1,5.1168D-1,-5.120324225353D-1,5.120324225353D-1;           119P     88
508,2,0,71,1,1,0,0,71,2,1,0;                                         121P     89
508,2,0,71,7,1,0,0,71,8,1,0;                                         123P     90
510,119,2,0,121,123;                                                 125P     91
110,0D0,0D0,0D0,0D0,0D0,-1D0;                                        127P     92
110,-4.92D-1,0D0,2.1654D-3,-4.92D-1,0D0,-1.104354D-1;                129P     93
120,127,129,-6.283185307180D-2,3.204424506662D0;                     131P     94
508,4,0,71,1,0,0,0,71,5,1,0,0,71,3,1,0,0,71,6,0,0;                   133P     95
510,131,1,0,133;                                                     135P     96
110,0D0,0D0,0D0,0D0,0D0,-1D0;                                        137P     97
110,-4.92D-1,0D0,2.1654D-3,-4.92D-1,0D0,-1.104354D-1;                139P     98
120,137,139,3.078760800518D0,6.346017160251D0;                       141P     99
508,4,0,71,2,0,0,0,71,6,1,0,0,71,4,1,0,0,71,5,0,0;                   143P    100
510,141,1,0,143;                                                     145P    101
128,1,1,1,1,0,0,1,0,0,-5.1168D-1,-5.1168D-1,5.1168D-1,5.1168D-1,     147P    102
-5.120324225353D-1,-5.120324225353D-1,5.120324225353D-1,             147P    103
5.120324225353D-1,1D0,1D0,1D0,1D0,5.1168D-1,-5.120324225353D-1,      147P    104
-1.0827D-1,-5.1168D-1,-5.120324225353D-1,-1.0827D-1,5.1168D-1,       147P    105
5.120324225353D-1,-1.0827D-1,-5.1168D-1,5.120324225353D-1,           147P    106
-1.0827D-1,-5.1168D-1,5.1168D-1,-5.120324225353D-1,                  147P    107
5.120324225353D-1;                                                   147P    108
508,2,0,71,3,0,0,0,71,4,0,0;                                         149P    109
510,147,1,0,149;                                                     151P    110
514,9,77,1,87,1,97,1,107,1,117,1,125,0,135,1,145,1,151,1;            153P    111
186,153,1,0;                                                         155P    112
S      1G      4D    156P    112                                        T      1
