ISO-10303-21;
HEADER;
FILE_DESCRIPTION((''),'2;1');
FILE_NAME('215076_ASM','2019-11-22T10:42:52',('pdmadmin'),
('BANNER ENGINEERING'),'CREO PARAMETRIC BY PTC INC, 2018300',
'CREO PARAMETRIC BY PTC INC, 2018300','');
FILE_SCHEMA(('CONFIG_CONTROL_DESIGN'));
ENDSEC;
DATA;
#2=DIRECTION('',(0.E0,0.E0,1.E0));
#3=VECTOR('',#2,1.7E0);
#4=CARTESIAN_POINT('',(-4.9E0,-6.5E0,-4.75E0));
#5=LINE('',#4,#3);
#6=DIRECTION('',(-1.E0,0.E0,0.E0));
#7=VECTOR('',#6,1.6E0);
#8=CARTESIAN_POINT('',(-4.9E0,-6.5E0,-3.05E0));
#9=LINE('',#8,#7);
#10=DIRECTION('',(0.E0,0.E0,1.E0));
#11=VECTOR('',#10,1.25E0);
#12=CARTESIAN_POINT('',(-6.5E0,-6.5E0,-3.05E0));
#13=LINE('',#12,#11);
#14=DIRECTION('',(8.574929257125E-1,0.E0,5.144957554275E-1));
#15=VECTOR('',#14,3.498571136907E0);
#16=CARTESIAN_POINT('',(-6.5E0,-6.5E0,-1.8E0));
#17=LINE('',#16,#15);
#18=DIRECTION('',(1.E0,0.E0,0.E0));
#19=VECTOR('',#18,7.E0);
#20=CARTESIAN_POINT('',(-3.5E0,-6.5E0,0.E0));
#21=LINE('',#20,#19);
#22=DIRECTION('',(8.574929257125E-1,0.E0,-5.144957554275E-1));
#23=VECTOR('',#22,3.498571136907E0);
#24=CARTESIAN_POINT('',(3.5E0,-6.5E0,0.E0));
#25=LINE('',#24,#23);
#26=DIRECTION('',(0.E0,0.E0,-1.E0));
#27=VECTOR('',#26,1.25E0);
#28=CARTESIAN_POINT('',(6.5E0,-6.5E0,-1.8E0));
#29=LINE('',#28,#27);
#30=DIRECTION('',(-1.E0,0.E0,0.E0));
#31=VECTOR('',#30,1.6E0);
#32=CARTESIAN_POINT('',(6.5E0,-6.5E0,-3.05E0));
#33=LINE('',#32,#31);
#34=DIRECTION('',(0.E0,0.E0,-1.E0));
#35=VECTOR('',#34,1.7E0);
#36=CARTESIAN_POINT('',(4.9E0,-6.5E0,-3.05E0));
#37=LINE('',#36,#35);
#38=DIRECTION('',(-1.E0,0.E0,0.E0));
#39=VECTOR('',#38,9.8E0);
#40=CARTESIAN_POINT('',(4.9E0,-6.5E0,-4.75E0));
#41=LINE('',#40,#39);
#42=DIRECTION('',(0.E0,1.E0,0.E0));
#43=VECTOR('',#42,1.3E1);
#44=CARTESIAN_POINT('',(-4.9E0,-6.5E0,-4.75E0));
#45=LINE('',#44,#43);
#46=DIRECTION('',(0.E0,1.E0,0.E0));
#47=VECTOR('',#46,1.3E1);
#48=CARTESIAN_POINT('',(4.9E0,-6.5E0,-4.75E0));
#49=LINE('',#48,#47);
#50=CARTESIAN_POINT('',(0.E0,0.E0,-4.75E0));
#51=DIRECTION('',(0.E0,0.E0,1.E0));
#52=DIRECTION('',(1.E0,0.E0,0.E0));
#53=AXIS2_PLACEMENT_3D('',#50,#51,#52);
#55=CARTESIAN_POINT('',(0.E0,0.E0,-4.75E0));
#56=DIRECTION('',(0.E0,0.E0,1.E0));
#57=DIRECTION('',(-1.E0,0.E0,0.E0));
#58=AXIS2_PLACEMENT_3D('',#55,#56,#57);
#60=DIRECTION('',(0.E0,1.E0,0.E0));
#61=VECTOR('',#60,1.3E1);
#62=CARTESIAN_POINT('',(4.9E0,-6.5E0,-3.05E0));
#63=LINE('',#62,#61);
#64=DIRECTION('',(0.E0,1.E0,0.E0));
#65=VECTOR('',#64,1.3E1);
#66=CARTESIAN_POINT('',(6.5E0,-6.5E0,-3.05E0));
#67=LINE('',#66,#65);
#68=DIRECTION('',(0.E0,1.E0,0.E0));
#69=VECTOR('',#68,1.3E1);
#70=CARTESIAN_POINT('',(6.5E0,-6.5E0,-1.8E0));
#71=LINE('',#70,#69);
#72=DIRECTION('',(0.E0,1.E0,0.E0));
#73=VECTOR('',#72,1.3E1);
#74=CARTESIAN_POINT('',(3.5E0,-6.5E0,0.E0));
#75=LINE('',#74,#73);
#76=DIRECTION('',(0.E0,1.E0,0.E0));
#77=VECTOR('',#76,1.3E1);
#78=CARTESIAN_POINT('',(-3.5E0,-6.5E0,0.E0));
#79=LINE('',#78,#77);
#80=CARTESIAN_POINT('',(0.E0,0.E0,0.E0));
#81=DIRECTION('',(0.E0,0.E0,1.E0));
#82=DIRECTION('',(1.E0,0.E0,0.E0));
#83=AXIS2_PLACEMENT_3D('',#80,#81,#82);
#85=CARTESIAN_POINT('',(0.E0,0.E0,0.E0));
#86=DIRECTION('',(0.E0,0.E0,1.E0));
#87=DIRECTION('',(-1.E0,0.E0,0.E0));
#88=AXIS2_PLACEMENT_3D('',#85,#86,#87);
#90=DIRECTION('',(0.E0,1.E0,0.E0));
#91=VECTOR('',#90,1.3E1);
#92=CARTESIAN_POINT('',(-6.5E0,-6.5E0,-1.8E0));
#93=LINE('',#92,#91);
#94=DIRECTION('',(0.E0,1.E0,0.E0));
#95=VECTOR('',#94,1.3E1);
#96=CARTESIAN_POINT('',(-6.5E0,-6.5E0,-3.05E0));
#97=LINE('',#96,#95);
#98=DIRECTION('',(0.E0,1.E0,0.E0));
#99=VECTOR('',#98,1.3E1);
#100=CARTESIAN_POINT('',(-4.9E0,-6.5E0,-3.05E0));
#101=LINE('',#100,#99);
#102=DIRECTION('',(0.E0,0.E0,1.E0));
#103=VECTOR('',#102,1.7E0);
#104=CARTESIAN_POINT('',(-4.9E0,6.5E0,-4.75E0));
#105=LINE('',#104,#103);
#106=DIRECTION('',(-1.E0,0.E0,0.E0));
#107=VECTOR('',#106,9.8E0);
#108=CARTESIAN_POINT('',(4.9E0,6.5E0,-4.75E0));
#109=LINE('',#108,#107);
#110=DIRECTION('',(0.E0,0.E0,-1.E0));
#111=VECTOR('',#110,1.7E0);
#112=CARTESIAN_POINT('',(4.9E0,6.5E0,-3.05E0));
#113=LINE('',#112,#111);
#114=DIRECTION('',(-1.E0,0.E0,0.E0));
#115=VECTOR('',#114,1.6E0);
#116=CARTESIAN_POINT('',(6.5E0,6.5E0,-3.05E0));
#117=LINE('',#116,#115);
#118=DIRECTION('',(0.E0,0.E0,-1.E0));
#119=VECTOR('',#118,1.25E0);
#120=CARTESIAN_POINT('',(6.5E0,6.5E0,-1.8E0));
#121=LINE('',#120,#119);
#122=DIRECTION('',(8.574929257125E-1,0.E0,-5.144957554275E-1));
#123=VECTOR('',#122,3.498571136907E0);
#124=CARTESIAN_POINT('',(3.5E0,6.5E0,0.E0));
#125=LINE('',#124,#123);
#126=DIRECTION('',(1.E0,0.E0,0.E0));
#127=VECTOR('',#126,7.E0);
#128=CARTESIAN_POINT('',(-3.5E0,6.5E0,0.E0));
#129=LINE('',#128,#127);
#130=DIRECTION('',(8.574929257125E-1,0.E0,5.144957554275E-1));
#131=VECTOR('',#130,3.498571136907E0);
#132=CARTESIAN_POINT('',(-6.5E0,6.5E0,-1.8E0));
#133=LINE('',#132,#131);
#134=DIRECTION('',(0.E0,0.E0,1.E0));
#135=VECTOR('',#134,1.25E0);
#136=CARTESIAN_POINT('',(-6.5E0,6.5E0,-3.05E0));
#137=LINE('',#136,#135);
#138=DIRECTION('',(-1.E0,0.E0,0.E0));
#139=VECTOR('',#138,1.6E0);
#140=CARTESIAN_POINT('',(-4.9E0,6.5E0,-3.05E0));
#141=LINE('',#140,#139);
#142=DIRECTION('',(0.E0,0.E0,-1.E0));
#143=VECTOR('',#142,4.75E0);
#144=CARTESIAN_POINT('',(2.05E0,0.E0,0.E0));
#145=LINE('',#144,#143);
#146=DIRECTION('',(0.E0,0.E0,-1.E0));
#147=VECTOR('',#146,4.75E0);
#148=CARTESIAN_POINT('',(-2.05E0,0.E0,0.E0));
#149=LINE('',#148,#147);
#150=CARTESIAN_POINT('',(-4.9E0,-6.5E0,-4.75E0));
#151=CARTESIAN_POINT('',(-4.9E0,-6.5E0,-3.05E0));
#152=VERTEX_POINT('',#150);
#153=VERTEX_POINT('',#151);
#154=CARTESIAN_POINT('',(-6.5E0,-6.5E0,-3.05E0));
#155=VERTEX_POINT('',#154);
#156=CARTESIAN_POINT('',(-6.5E0,-6.5E0,-1.8E0));
#157=VERTEX_POINT('',#156);
#158=CARTESIAN_POINT('',(-3.5E0,-6.5E0,0.E0));
#159=VERTEX_POINT('',#158);
#160=CARTESIAN_POINT('',(3.5E0,-6.5E0,0.E0));
#161=VERTEX_POINT('',#160);
#162=CARTESIAN_POINT('',(6.5E0,-6.5E0,-1.8E0));
#163=VERTEX_POINT('',#162);
#164=CARTESIAN_POINT('',(6.5E0,-6.5E0,-3.05E0));
#165=VERTEX_POINT('',#164);
#166=CARTESIAN_POINT('',(4.9E0,-6.5E0,-3.05E0));
#167=VERTEX_POINT('',#166);
#168=CARTESIAN_POINT('',(4.9E0,-6.5E0,-4.75E0));
#169=VERTEX_POINT('',#168);
#170=CARTESIAN_POINT('',(-4.9E0,6.5E0,-4.75E0));
#171=CARTESIAN_POINT('',(-4.9E0,6.5E0,-3.05E0));
#172=VERTEX_POINT('',#170);
#173=VERTEX_POINT('',#171);
#174=CARTESIAN_POINT('',(-6.5E0,6.5E0,-3.05E0));
#175=VERTEX_POINT('',#174);
#176=CARTESIAN_POINT('',(-6.5E0,6.5E0,-1.8E0));
#177=VERTEX_POINT('',#176);
#178=CARTESIAN_POINT('',(-3.5E0,6.5E0,0.E0));
#179=VERTEX_POINT('',#178);
#180=CARTESIAN_POINT('',(3.5E0,6.5E0,0.E0));
#181=VERTEX_POINT('',#180);
#182=CARTESIAN_POINT('',(6.5E0,6.5E0,-1.8E0));
#183=VERTEX_POINT('',#182);
#184=CARTESIAN_POINT('',(6.5E0,6.5E0,-3.05E0));
#185=VERTEX_POINT('',#184);
#186=CARTESIAN_POINT('',(4.9E0,6.5E0,-3.05E0));
#187=VERTEX_POINT('',#186);
#188=CARTESIAN_POINT('',(4.9E0,6.5E0,-4.75E0));
#189=VERTEX_POINT('',#188);
#190=CARTESIAN_POINT('',(2.05E0,0.E0,0.E0));
#191=CARTESIAN_POINT('',(-2.05E0,0.E0,0.E0));
#192=VERTEX_POINT('',#190);
#193=VERTEX_POINT('',#191);
#194=CARTESIAN_POINT('',(2.05E0,0.E0,-4.75E0));
#195=CARTESIAN_POINT('',(-2.05E0,0.E0,-4.75E0));
#196=VERTEX_POINT('',#194);
#197=VERTEX_POINT('',#195);
#198=CARTESIAN_POINT('',(0.E0,-6.5E0,0.E0));
#199=DIRECTION('',(0.E0,1.E0,0.E0));
#200=DIRECTION('',(1.E0,0.E0,0.E0));
#201=AXIS2_PLACEMENT_3D('',#198,#199,#200);
#202=PLANE('',#201);
#204=ORIENTED_EDGE('',*,*,#203,.T.);
#206=ORIENTED_EDGE('',*,*,#205,.T.);
#208=ORIENTED_EDGE('',*,*,#207,.T.);
#210=ORIENTED_EDGE('',*,*,#209,.T.);
#212=ORIENTED_EDGE('',*,*,#211,.T.);
#214=ORIENTED_EDGE('',*,*,#213,.T.);
#216=ORIENTED_EDGE('',*,*,#215,.T.);
#218=ORIENTED_EDGE('',*,*,#217,.T.);
#220=ORIENTED_EDGE('',*,*,#219,.T.);
#222=ORIENTED_EDGE('',*,*,#221,.T.);
#223=EDGE_LOOP('',(#204,#206,#208,#210,#212,#214,#216,#218,#220,#222));
#224=FACE_OUTER_BOUND('',#223,.F.);
#225=ADVANCED_FACE('',(#224),#202,.F.);
#226=CARTESIAN_POINT('',(-4.9E0,-6.5E0,-4.75E0));
#227=DIRECTION('',(-1.E0,0.E0,0.E0));
#228=DIRECTION('',(0.E0,0.E0,1.E0));
#229=AXIS2_PLACEMENT_3D('',#226,#227,#228);
#230=PLANE('',#229);
#231=ORIENTED_EDGE('',*,*,#203,.F.);
#233=ORIENTED_EDGE('',*,*,#232,.T.);
#235=ORIENTED_EDGE('',*,*,#234,.T.);
#237=ORIENTED_EDGE('',*,*,#236,.F.);
#238=EDGE_LOOP('',(#231,#233,#235,#237));
#239=FACE_OUTER_BOUND('',#238,.F.);
#240=ADVANCED_FACE('',(#239),#230,.T.);
#241=CARTESIAN_POINT('',(4.9E0,-6.5E0,-4.75E0));
#242=DIRECTION('',(0.E0,0.E0,-1.E0));
#243=DIRECTION('',(-1.E0,0.E0,0.E0));
#244=AXIS2_PLACEMENT_3D('',#241,#242,#243);
#245=PLANE('',#244);
#246=ORIENTED_EDGE('',*,*,#221,.F.);
#248=ORIENTED_EDGE('',*,*,#247,.T.);
#250=ORIENTED_EDGE('',*,*,#249,.T.);
#251=ORIENTED_EDGE('',*,*,#232,.F.);
#252=EDGE_LOOP('',(#246,#248,#250,#251));
#253=FACE_OUTER_BOUND('',#252,.F.);
#255=ORIENTED_EDGE('',*,*,#254,.F.);
#257=ORIENTED_EDGE('',*,*,#256,.F.);
#258=EDGE_LOOP('',(#255,#257));
#259=FACE_BOUND('',#258,.F.);
#260=ADVANCED_FACE('',(#253,#259),#245,.T.);
#261=CARTESIAN_POINT('',(4.9E0,-6.5E0,-3.05E0));
#262=DIRECTION('',(1.E0,0.E0,0.E0));
#263=DIRECTION('',(0.E0,0.E0,-1.E0));
#264=AXIS2_PLACEMENT_3D('',#261,#262,#263);
#265=PLANE('',#264);
#266=ORIENTED_EDGE('',*,*,#219,.F.);
#268=ORIENTED_EDGE('',*,*,#267,.T.);
#270=ORIENTED_EDGE('',*,*,#269,.T.);
#271=ORIENTED_EDGE('',*,*,#247,.F.);
#272=EDGE_LOOP('',(#266,#268,#270,#271));
#273=FACE_OUTER_BOUND('',#272,.F.);
#274=ADVANCED_FACE('',(#273),#265,.T.);
#275=CARTESIAN_POINT('',(6.5E0,-6.5E0,-3.05E0));
#276=DIRECTION('',(0.E0,0.E0,-1.E0));
#277=DIRECTION('',(-1.E0,0.E0,0.E0));
#278=AXIS2_PLACEMENT_3D('',#275,#276,#277);
#279=PLANE('',#278);
#280=ORIENTED_EDGE('',*,*,#217,.F.);
#282=ORIENTED_EDGE('',*,*,#281,.T.);
#284=ORIENTED_EDGE('',*,*,#283,.T.);
#285=ORIENTED_EDGE('',*,*,#267,.F.);
#286=EDGE_LOOP('',(#280,#282,#284,#285));
#287=FACE_OUTER_BOUND('',#286,.F.);
#288=ADVANCED_FACE('',(#287),#279,.T.);
#289=CARTESIAN_POINT('',(6.5E0,-6.5E0,-1.8E0));
#290=DIRECTION('',(1.E0,0.E0,0.E0));
#291=DIRECTION('',(0.E0,0.E0,-1.E0));
#292=AXIS2_PLACEMENT_3D('',#289,#290,#291);
#293=PLANE('',#292);
#294=ORIENTED_EDGE('',*,*,#215,.F.);
#296=ORIENTED_EDGE('',*,*,#295,.T.);
#298=ORIENTED_EDGE('',*,*,#297,.T.);
#299=ORIENTED_EDGE('',*,*,#281,.F.);
#300=EDGE_LOOP('',(#294,#296,#298,#299));
#301=FACE_OUTER_BOUND('',#300,.F.);
#302=ADVANCED_FACE('',(#301),#293,.T.);
#303=CARTESIAN_POINT('',(3.5E0,-6.5E0,0.E0));
#304=DIRECTION('',(5.144957554275E-1,0.E0,8.574929257125E-1));
#305=DIRECTION('',(8.574929257125E-1,0.E0,-5.144957554275E-1));
#306=AXIS2_PLACEMENT_3D('',#303,#304,#305);
#307=PLANE('',#306);
#308=ORIENTED_EDGE('',*,*,#213,.F.);
#310=ORIENTED_EDGE('',*,*,#309,.T.);
#312=ORIENTED_EDGE('',*,*,#311,.T.);
#313=ORIENTED_EDGE('',*,*,#295,.F.);
#314=EDGE_LOOP('',(#308,#310,#312,#313));
#315=FACE_OUTER_BOUND('',#314,.F.);
#316=ADVANCED_FACE('',(#315),#307,.T.);
#317=CARTESIAN_POINT('',(-3.5E0,-6.5E0,0.E0));
#318=DIRECTION('',(0.E0,0.E0,1.E0));
#319=DIRECTION('',(1.E0,0.E0,0.E0));
#320=AXIS2_PLACEMENT_3D('',#317,#318,#319);
#321=PLANE('',#320);
#322=ORIENTED_EDGE('',*,*,#211,.F.);
#324=ORIENTED_EDGE('',*,*,#323,.T.);
#326=ORIENTED_EDGE('',*,*,#325,.T.);
#327=ORIENTED_EDGE('',*,*,#309,.F.);
#328=EDGE_LOOP('',(#322,#324,#326,#327));
#329=FACE_OUTER_BOUND('',#328,.F.);
#331=ORIENTED_EDGE('',*,*,#330,.T.);
#333=ORIENTED_EDGE('',*,*,#332,.T.);
#334=EDGE_LOOP('',(#331,#333));
#335=FACE_BOUND('',#334,.F.);
#336=ADVANCED_FACE('',(#329,#335),#321,.T.);
#337=CARTESIAN_POINT('',(-6.5E0,-6.5E0,-1.8E0));
#338=DIRECTION('',(-5.144957554275E-1,0.E0,8.574929257125E-1));
#339=DIRECTION('',(8.574929257125E-1,0.E0,5.144957554275E-1));
#340=AXIS2_PLACEMENT_3D('',#337,#338,#339);
#341=PLANE('',#340);
#342=ORIENTED_EDGE('',*,*,#209,.F.);
#344=ORIENTED_EDGE('',*,*,#343,.T.);
#346=ORIENTED_EDGE('',*,*,#345,.T.);
#347=ORIENTED_EDGE('',*,*,#323,.F.);
#348=EDGE_LOOP('',(#342,#344,#346,#347));
#349=FACE_OUTER_BOUND('',#348,.F.);
#350=ADVANCED_FACE('',(#349),#341,.T.);
#351=CARTESIAN_POINT('',(-6.5E0,-6.5E0,-3.05E0));
#352=DIRECTION('',(-1.E0,0.E0,0.E0));
#353=DIRECTION('',(0.E0,0.E0,1.E0));
#354=AXIS2_PLACEMENT_3D('',#351,#352,#353);
#355=PLANE('',#354);
#356=ORIENTED_EDGE('',*,*,#207,.F.);
#358=ORIENTED_EDGE('',*,*,#357,.T.);
#360=ORIENTED_EDGE('',*,*,#359,.T.);
#361=ORIENTED_EDGE('',*,*,#343,.F.);
#362=EDGE_LOOP('',(#356,#358,#360,#361));
#363=FACE_OUTER_BOUND('',#362,.F.);
#364=ADVANCED_FACE('',(#363),#355,.T.);
#365=CARTESIAN_POINT('',(-4.9E0,-6.5E0,-3.05E0));
#366=DIRECTION('',(0.E0,0.E0,-1.E0));
#367=DIRECTION('',(-1.E0,0.E0,0.E0));
#368=AXIS2_PLACEMENT_3D('',#365,#366,#367);
#369=PLANE('',#368);
#370=ORIENTED_EDGE('',*,*,#205,.F.);
#371=ORIENTED_EDGE('',*,*,#236,.T.);
#373=ORIENTED_EDGE('',*,*,#372,.T.);
#374=ORIENTED_EDGE('',*,*,#357,.F.);
#375=EDGE_LOOP('',(#370,#371,#373,#374));
#376=FACE_OUTER_BOUND('',#375,.F.);
#377=ADVANCED_FACE('',(#376),#369,.T.);
#378=CARTESIAN_POINT('',(0.E0,6.5E0,0.E0));
#379=DIRECTION('',(0.E0,1.E0,0.E0));
#380=DIRECTION('',(1.E0,0.E0,0.E0));
#381=AXIS2_PLACEMENT_3D('',#378,#379,#380);
#382=PLANE('',#381);
#383=ORIENTED_EDGE('',*,*,#234,.F.);
#384=ORIENTED_EDGE('',*,*,#249,.F.);
#385=ORIENTED_EDGE('',*,*,#269,.F.);
#386=ORIENTED_EDGE('',*,*,#283,.F.);
#387=ORIENTED_EDGE('',*,*,#297,.F.);
#388=ORIENTED_EDGE('',*,*,#311,.F.);
#389=ORIENTED_EDGE('',*,*,#325,.F.);
#390=ORIENTED_EDGE('',*,*,#345,.F.);
#391=ORIENTED_EDGE('',*,*,#359,.F.);
#392=ORIENTED_EDGE('',*,*,#372,.F.);
#393=EDGE_LOOP('',(#383,#384,#385,#386,#387,#388,#389,#390,#391,#392));
#394=FACE_OUTER_BOUND('',#393,.F.);
#395=ADVANCED_FACE('',(#394),#382,.T.);
#396=CARTESIAN_POINT('',(0.E0,0.E0,0.E0));
#397=DIRECTION('',(0.E0,0.E0,1.E0));
#398=DIRECTION('',(1.E0,0.E0,0.E0));
#399=AXIS2_PLACEMENT_3D('',#396,#397,#398);
#400=CYLINDRICAL_SURFACE('',#399,2.05E0);
#401=ORIENTED_EDGE('',*,*,#330,.F.);
#403=ORIENTED_EDGE('',*,*,#402,.T.);
#404=ORIENTED_EDGE('',*,*,#254,.T.);
#406=ORIENTED_EDGE('',*,*,#405,.F.);
#407=EDGE_LOOP('',(#401,#403,#404,#406));
#408=FACE_OUTER_BOUND('',#407,.F.);
#409=ADVANCED_FACE('',(#408),#400,.F.);
#410=CARTESIAN_POINT('',(0.E0,0.E0,0.E0));
#411=DIRECTION('',(0.E0,0.E0,1.E0));
#412=DIRECTION('',(1.E0,0.E0,0.E0));
#413=AXIS2_PLACEMENT_3D('',#410,#411,#412);
#414=CYLINDRICAL_SURFACE('',#413,2.05E0);
#415=ORIENTED_EDGE('',*,*,#332,.F.);
#416=ORIENTED_EDGE('',*,*,#405,.T.);
#417=ORIENTED_EDGE('',*,*,#256,.T.);
#418=ORIENTED_EDGE('',*,*,#402,.F.);
#419=EDGE_LOOP('',(#415,#416,#417,#418));
#420=FACE_OUTER_BOUND('',#419,.F.);
#421=ADVANCED_FACE('',(#420),#414,.F.);
#422=CLOSED_SHELL('',(#225,#240,#260,#274,#288,#302,#316,#336,#350,#364,#377,
#395,#409,#421));
#423=CARTESIAN_POINT('',(0.E0,0.E0,-4.75E0));
#424=DIRECTION('',(0.E0,0.E0,-1.E0));
#425=DIRECTION('',(-1.E0,0.E0,0.E0));
#426=AXIS2_PLACEMENT_3D('',#423,#424,#425);
#428=DIRECTION('',(0.E0,0.E0,1.E0));
#429=VECTOR('',#428,4.75E0);
#430=CARTESIAN_POINT('',(2.5E0,0.E0,-4.75E0));
#431=LINE('',#430,#429);
#432=CARTESIAN_POINT('',(0.E0,0.E0,0.E0));
#433=DIRECTION('',(0.E0,0.E0,1.E0));
#434=DIRECTION('',(1.E0,0.E0,0.E0));
#435=AXIS2_PLACEMENT_3D('',#432,#433,#434);
#437=CARTESIAN_POINT('',(0.E0,0.E0,-4.75E0));
#438=DIRECTION('',(0.E0,0.E0,-1.E0));
#439=DIRECTION('',(1.E0,0.E0,0.E0));
#440=AXIS2_PLACEMENT_3D('',#437,#438,#439);
#442=DIRECTION('',(0.E0,0.E0,1.E0));
#443=VECTOR('',#442,4.75E0);
#444=CARTESIAN_POINT('',(-2.5E0,0.E0,-4.75E0));
#445=LINE('',#444,#443);
#446=CARTESIAN_POINT('',(0.E0,0.E0,0.E0));
#447=DIRECTION('',(0.E0,0.E0,1.E0));
#448=DIRECTION('',(-1.E0,0.E0,0.E0));
#449=AXIS2_PLACEMENT_3D('',#446,#447,#448);
#451=CARTESIAN_POINT('',(2.5E0,0.E0,-4.75E0));
#452=CARTESIAN_POINT('',(-2.5E0,0.E0,-4.75E0));
#453=VERTEX_POINT('',#451);
#454=VERTEX_POINT('',#452);
#455=CARTESIAN_POINT('',(2.5E0,0.E0,0.E0));
#456=CARTESIAN_POINT('',(-2.5E0,0.E0,0.E0));
#457=VERTEX_POINT('',#455);
#458=VERTEX_POINT('',#456);
#459=CARTESIAN_POINT('',(0.E0,0.E0,-4.75E0));
#460=DIRECTION('',(0.E0,0.E0,1.E0));
#461=DIRECTION('',(1.E0,0.E0,0.E0));
#462=AXIS2_PLACEMENT_3D('',#459,#460,#461);
#463=CYLINDRICAL_SURFACE('',#462,2.5E0);
#465=ORIENTED_EDGE('',*,*,#464,.T.);
#467=ORIENTED_EDGE('',*,*,#466,.T.);
#469=ORIENTED_EDGE('',*,*,#468,.T.);
#471=ORIENTED_EDGE('',*,*,#470,.F.);
#472=EDGE_LOOP('',(#465,#467,#469,#471));
#473=FACE_OUTER_BOUND('',#472,.F.);
#474=ADVANCED_FACE('',(#473),#463,.T.);
#475=CARTESIAN_POINT('',(0.E0,0.E0,-4.75E0));
#476=DIRECTION('',(0.E0,0.E0,1.E0));
#477=DIRECTION('',(1.E0,0.E0,0.E0));
#478=AXIS2_PLACEMENT_3D('',#475,#476,#477);
#479=CYLINDRICAL_SURFACE('',#478,2.5E0);
#481=ORIENTED_EDGE('',*,*,#480,.T.);
#482=ORIENTED_EDGE('',*,*,#470,.T.);
#484=ORIENTED_EDGE('',*,*,#483,.T.);
#485=ORIENTED_EDGE('',*,*,#466,.F.);
#486=EDGE_LOOP('',(#481,#482,#484,#485));
#487=FACE_OUTER_BOUND('',#486,.F.);
#488=ADVANCED_FACE('',(#487),#479,.T.);
#489=OPEN_SHELL('',(#474,#488));
#490=MANIFOLD_SOLID_BREP('',#422);
#491=SHELL_BASED_SURFACE_MODEL('',(#489));
#493=DIMENSIONAL_EXPONENTS(0.E0,0.E0,0.E0,0.E0,0.E0,0.E0,0.E0);
#495=PLANE_ANGLE_MEASURE_WITH_UNIT(PLANE_ANGLE_MEASURE(1.745329251994E-2),#494);
#496=(CONVERSION_BASED_UNIT('DEGREE',#495)NAMED_UNIT(*)PLANE_ANGLE_UNIT());
#498=UNCERTAINTY_MEASURE_WITH_UNIT(LENGTH_MEASURE(1.898772381242E-3),#492,
'closure',
'Maximum model space distance between geometric entities at asserted connectivities');
#499=(GEOMETRIC_REPRESENTATION_CONTEXT(3)GLOBAL_UNCERTAINTY_ASSIGNED_CONTEXT((
#498))GLOBAL_UNIT_ASSIGNED_CONTEXT((#492,#496,#497))REPRESENTATION_CONTEXT
('ID1','3'));
#500=CARTESIAN_POINT('',(0.E0,0.E0,0.E0));
#501=DIRECTION('',(0.E0,0.E0,1.E0));
#502=DIRECTION('',(1.E0,0.E0,0.E0));
#505=CARTESIAN_POINT('',(0.E0,0.E0,0.E0));
#506=DIRECTION('',(0.E0,0.E0,1.E0));
#507=DIRECTION('',(1.E0,0.E0,0.E0));
#510=CARTESIAN_POINT('',(0.E0,0.E0,0.E0));
#511=DIRECTION('',(0.E0,0.E0,1.E0));
#512=DIRECTION('',(1.E0,0.E0,0.E0));
#515=SHAPE_REPRESENTATION_RELATIONSHIP('','',#514,#504);
#516=SHAPE_REPRESENTATION_RELATIONSHIP('','',#514,#509);
#517=APPLICATION_CONTEXT(
'CONFIGURATION CONTROLLED 3D DESIGNS OF MECHANICAL PARTS AND ASSEMBLIES');
#518=APPLICATION_PROTOCOL_DEFINITION('international standard',
'config_control_design',1994,#517);
#519=DESIGN_CONTEXT('',#517,'design');
#520=MECHANICAL_CONTEXT('',#517,'mechanical');
#521=PRODUCT('60139','60139','NOT SPECIFIED',(#520));
#522=PRODUCT_DEFINITION_FORMATION_WITH_SPECIFIED_SOURCE('1','LAST_VERSION',#521,
.MADE.);
#531=CARTESIAN_POINT('',(0.E0,0.E0,0.E0));
#532=DIRECTION('',(0.E0,0.E0,1.E0));
#533=DIRECTION('',(1.E0,0.E0,0.E0));
#534=AXIS2_PLACEMENT_3D('',#531,#532,#533);
#535=ITEM_DEFINED_TRANSFORMATION('','',#513,#534);
#536=(REPRESENTATION_RELATIONSHIP('','',#514,#528)REPRESENTATION_RELATIONSHIP_WITH_TRANSFORMATION(#535)SHAPE_REPRESENTATION_RELATIONSHIP());
#537=CONTEXT_DEPENDENT_SHAPE_REPRESENTATION(#536,#530);
#539=DIMENSIONAL_EXPONENTS(0.E0,0.E0,0.E0,0.E0,0.E0,0.E0,0.E0);
#541=PLANE_ANGLE_MEASURE_WITH_UNIT(PLANE_ANGLE_MEASURE(1.745329251994E-2),#540);
#542=(CONVERSION_BASED_UNIT('DEGREE',#541)NAMED_UNIT(*)PLANE_ANGLE_UNIT());
#544=UNCERTAINTY_MEASURE_WITH_UNIT(LENGTH_MEASURE(1.898772381242E-3),#538,
'closure',
'Maximum model space distance between geometric entities at asserted connectivities');
#545=(GEOMETRIC_REPRESENTATION_CONTEXT(3)GLOBAL_UNCERTAINTY_ASSIGNED_CONTEXT((
#544))GLOBAL_UNIT_ASSIGNED_CONTEXT((#538,#542,#543))REPRESENTATION_CONTEXT
('ID2','3'));
#546=CARTESIAN_POINT('',(0.E0,0.E0,0.E0));
#547=DIRECTION('',(0.E0,0.E0,1.E0));
#548=DIRECTION('',(1.E0,0.E0,0.E0));
#550=MECHANICAL_CONTEXT('',#517,'mechanical');
#551=PRODUCT('215076_ASM','215076_ASM','NOT SPECIFIED',(#550));
#552=PRODUCT_DEFINITION_FORMATION_WITH_SPECIFIED_SOURCE('1','LAST_VERSION',#551,
.MADE.);
#554=PRODUCT_CATEGORY('part','');
#555=PRODUCT_RELATED_PRODUCT_CATEGORY('assembly','',(#551));
#556=PRODUCT_CATEGORY_RELATIONSHIP('','',#554,#555);
#557=PRODUCT_CATEGORY('part','');
#558=PRODUCT_RELATED_PRODUCT_CATEGORY('detail','',(#521));
#559=PRODUCT_CATEGORY_RELATIONSHIP('','',#557,#558);
#560=SECURITY_CLASSIFICATION_LEVEL('unclassified');
#561=SECURITY_CLASSIFICATION('','',#560);
#562=CC_DESIGN_SECURITY_CLASSIFICATION(#561,(#522,#552,#529));
#563=APPROVAL_STATUS('approved');
#564=APPROVAL(#563,'');
#565=CC_DESIGN_APPROVAL(#564,(#561,#522,#552,#523,#553));
#566=CALENDAR_DATE(119,22,11);
#567=COORDINATED_UNIVERSAL_TIME_OFFSET(6,0,.BEHIND.);
#568=LOCAL_TIME(10,42,5.2E1,#567);
#569=DATE_AND_TIME(#566,#568);
#570=APPROVAL_DATE_TIME(#569,#564);
#571=DATE_TIME_ROLE('creation_date');
#572=CC_DESIGN_DATE_AND_TIME_ASSIGNMENT(#569,#571,(#523,#553));
#573=DATE_TIME_ROLE('classification_date');
#574=CC_DESIGN_DATE_AND_TIME_ASSIGNMENT(#569,#573,(#561));
#575=PERSON('UNSPECIFIED','UNSPECIFIED',$,$,$,$);
#576=ORGANIZATION('UNSPECIFIED','UNSPECIFIED','UNSPECIFIED');
#577=PERSON_AND_ORGANIZATION(#575,#576);
#578=APPROVAL_ROLE('approver');
#579=APPROVAL_PERSON_ORGANIZATION(#577,#564,#578);
#580=PERSON_AND_ORGANIZATION_ROLE('creator');
#581=CC_DESIGN_PERSON_AND_ORGANIZATION_ASSIGNMENT(#577,#580,(#522,#552,#523,
#553));
#582=PERSON_AND_ORGANIZATION_ROLE('design_supplier');
#583=CC_DESIGN_PERSON_AND_ORGANIZATION_ASSIGNMENT(#577,#582,(#522,#552));
#584=PERSON_AND_ORGANIZATION_ROLE('classification_officer');
#585=CC_DESIGN_PERSON_AND_ORGANIZATION_ASSIGNMENT(#577,#584,(#561));
#586=PERSON_AND_ORGANIZATION_ROLE('design_owner');
#587=CC_DESIGN_PERSON_AND_ORGANIZATION_ASSIGNMENT(#577,#586,(#551,#521));
#54=CIRCLE('',#53,2.05E0);
#59=CIRCLE('',#58,2.05E0);
#84=CIRCLE('',#83,2.05E0);
#89=CIRCLE('',#88,2.05E0);
#203=EDGE_CURVE('',#152,#153,#5,.T.);
#205=EDGE_CURVE('',#153,#155,#9,.T.);
#207=EDGE_CURVE('',#155,#157,#13,.T.);
#209=EDGE_CURVE('',#157,#159,#17,.T.);
#211=EDGE_CURVE('',#159,#161,#21,.T.);
#213=EDGE_CURVE('',#161,#163,#25,.T.);
#215=EDGE_CURVE('',#163,#165,#29,.T.);
#217=EDGE_CURVE('',#165,#167,#33,.T.);
#219=EDGE_CURVE('',#167,#169,#37,.T.);
#221=EDGE_CURVE('',#169,#152,#41,.T.);
#232=EDGE_CURVE('',#152,#172,#45,.T.);
#234=EDGE_CURVE('',#172,#173,#105,.T.);
#236=EDGE_CURVE('',#153,#173,#101,.T.);
#247=EDGE_CURVE('',#169,#189,#49,.T.);
#249=EDGE_CURVE('',#189,#172,#109,.T.);
#254=EDGE_CURVE('',#196,#197,#54,.T.);
#256=EDGE_CURVE('',#197,#196,#59,.T.);
#267=EDGE_CURVE('',#167,#187,#63,.T.);
#269=EDGE_CURVE('',#187,#189,#113,.T.);
#281=EDGE_CURVE('',#165,#185,#67,.T.);
#283=EDGE_CURVE('',#185,#187,#117,.T.);
#295=EDGE_CURVE('',#163,#183,#71,.T.);
#297=EDGE_CURVE('',#183,#185,#121,.T.);
#309=EDGE_CURVE('',#161,#181,#75,.T.);
#311=EDGE_CURVE('',#181,#183,#125,.T.);
#323=EDGE_CURVE('',#159,#179,#79,.T.);
#325=EDGE_CURVE('',#179,#181,#129,.T.);
#330=EDGE_CURVE('',#192,#193,#84,.T.);
#332=EDGE_CURVE('',#193,#192,#89,.T.);
#343=EDGE_CURVE('',#157,#177,#93,.T.);
#345=EDGE_CURVE('',#177,#179,#133,.T.);
#357=EDGE_CURVE('',#155,#175,#97,.T.);
#359=EDGE_CURVE('',#175,#177,#137,.T.);
#372=EDGE_CURVE('',#173,#175,#141,.T.);
#402=EDGE_CURVE('',#192,#196,#145,.T.);
#405=EDGE_CURVE('',#193,#197,#149,.T.);
#427=CIRCLE('',#426,2.5E0);
#436=CIRCLE('',#435,2.5E0);
#441=CIRCLE('',#440,2.5E0);
#450=CIRCLE('',#449,2.5E0);
#464=EDGE_CURVE('',#454,#453,#427,.T.);
#466=EDGE_CURVE('',#453,#457,#431,.T.);
#468=EDGE_CURVE('',#457,#458,#436,.T.);
#470=EDGE_CURVE('',#454,#458,#445,.T.);
#480=EDGE_CURVE('',#453,#454,#441,.T.);
#483=EDGE_CURVE('',#458,#457,#450,.T.);
#492=(LENGTH_UNIT()NAMED_UNIT(*)SI_UNIT(.MILLI.,.METRE.));
#494=(NAMED_UNIT(*)PLANE_ANGLE_UNIT()SI_UNIT($,.RADIAN.));
#497=(NAMED_UNIT(*)SI_UNIT($,.STERADIAN.)SOLID_ANGLE_UNIT());
#503=AXIS2_PLACEMENT_3D('',#500,#501,#502);
#504=ADVANCED_BREP_SHAPE_REPRESENTATION('',(#503,#490),#499);
#508=AXIS2_PLACEMENT_3D('',#505,#506,#507);
#509=MANIFOLD_SURFACE_SHAPE_REPRESENTATION('',(#508,#491),#499);
#513=AXIS2_PLACEMENT_3D('',#510,#511,#512);
#514=SHAPE_REPRESENTATION('',(#513),#499);
#523=PRODUCT_DEFINITION('design','',#522,#519);
#524=PRODUCT_DEFINITION_SHAPE('','SHAPE FOR 60139.',#523);
#525=SHAPE_DEFINITION_REPRESENTATION(#524,#514);
#526=SHAPE_DEFINITION_REPRESENTATION(#527,#528);
#527=PRODUCT_DEFINITION_SHAPE('','SHAPE FOR 215076_ASM.',#553);
#528=SHAPE_REPRESENTATION('',(#534,#549),#545);
#529=NEXT_ASSEMBLY_USAGE_OCCURRENCE('0','Next assembly relationship','60139',
#553,#523,$);
#530=PRODUCT_DEFINITION_SHAPE('Placement #0',
'Placement of 60139 with respect to 215076_ASM',#529);
#538=(LENGTH_UNIT()NAMED_UNIT(*)SI_UNIT(.MILLI.,.METRE.));
#540=(NAMED_UNIT(*)PLANE_ANGLE_UNIT()SI_UNIT($,.RADIAN.));
#543=(NAMED_UNIT(*)SI_UNIT($,.STERADIAN.)SOLID_ANGLE_UNIT());
#549=AXIS2_PLACEMENT_3D('',#546,#547,#548);
#553=PRODUCT_DEFINITION('design','',#552,#519);
ENDSEC;
END-ISO-10303-21;
