ISO-10303-21;
HEADER;
FILE_DESCRIPTION((''),'2;1');
FILE_NAME('199378_ASM','2017-02-15T',('PDMAdmin'),('BANNER ENGINEERING'),
'CREO PARAMETRIC BY PTC INC, 2016260','CREO PARAMETRIC BY PTC INC, 2016260','');
FILE_SCHEMA(('CONFIG_CONTROL_DESIGN'));
ENDSEC;
DATA;
#1=CARTESIAN_POINT('',(-1.81E-1,0.E0,8.75E-1));
#2=DIRECTION('',(0.E0,1.E0,0.E0));
#3=DIRECTION('',(0.E0,0.E0,-1.E0));
#4=AXIS2_PLACEMENT_3D('',#1,#2,#3);
#6=DIRECTION('',(1.E0,0.E0,0.E0));
#7=VECTOR('',#6,2.12E-1);
#8=CARTESIAN_POINT('',(-1.81E-1,0.E0,7.81E-1));
#9=LINE('',#8,#7);
#10=CARTESIAN_POINT('',(3.1E-2,0.E0,8.75E-1));
#11=DIRECTION('',(0.E0,1.E0,0.E0));
#12=DIRECTION('',(0.E0,0.E0,1.E0));
#13=AXIS2_PLACEMENT_3D('',#10,#11,#12);
#15=DIRECTION('',(-1.E0,0.E0,0.E0));
#16=VECTOR('',#15,2.12E-1);
#17=CARTESIAN_POINT('',(3.1E-2,0.E0,9.69E-1));
#18=LINE('',#17,#16);
#19=DIRECTION('',(1.E0,0.E0,0.E0));
#20=VECTOR('',#19,2.12E-1);
#21=CARTESIAN_POINT('',(-1.81E-1,0.E0,-9.69E-1));
#22=LINE('',#21,#20);
#23=CARTESIAN_POINT('',(3.1E-2,0.E0,-8.75E-1));
#24=DIRECTION('',(0.E0,1.E0,0.E0));
#25=DIRECTION('',(0.E0,0.E0,1.E0));
#26=AXIS2_PLACEMENT_3D('',#23,#24,#25);
#28=DIRECTION('',(-1.E0,0.E0,0.E0));
#29=VECTOR('',#28,2.12E-1);
#30=CARTESIAN_POINT('',(3.1E-2,0.E0,-7.81E-1));
#31=LINE('',#30,#29);
#32=CARTESIAN_POINT('',(-1.81E-1,0.E0,-8.75E-1));
#33=DIRECTION('',(0.E0,1.E0,0.E0));
#34=DIRECTION('',(0.E0,0.E0,-1.E0));
#35=AXIS2_PLACEMENT_3D('',#32,#33,#34);
#37=CARTESIAN_POINT('',(1.75E-1,0.E0,-8.75E-1));
#38=DIRECTION('',(0.E0,-1.E0,0.E0));
#39=DIRECTION('',(0.E0,0.E0,-1.E0));
#40=AXIS2_PLACEMENT_3D('',#37,#38,#39);
#42=DIRECTION('',(-1.E0,0.E0,0.E0));
#43=VECTOR('',#42,3.5E-1);
#44=CARTESIAN_POINT('',(1.75E-1,0.E0,-1.125E0));
#45=LINE('',#44,#43);
#46=CARTESIAN_POINT('',(-1.75E-1,0.E0,-8.75E-1));
#47=DIRECTION('',(0.E0,-1.E0,0.E0));
#48=DIRECTION('',(-1.E0,0.E0,0.E0));
#49=AXIS2_PLACEMENT_3D('',#46,#47,#48);
#51=DIRECTION('',(0.E0,0.E0,1.E0));
#52=VECTOR('',#51,1.75E0);
#53=CARTESIAN_POINT('',(-4.25E-1,0.E0,-8.75E-1));
#54=LINE('',#53,#52);
#55=CARTESIAN_POINT('',(-1.75E-1,0.E0,8.75E-1));
#56=DIRECTION('',(0.E0,-1.E0,0.E0));
#57=DIRECTION('',(0.E0,0.E0,1.E0));
#58=AXIS2_PLACEMENT_3D('',#55,#56,#57);
#60=DIRECTION('',(1.E0,0.E0,0.E0));
#61=VECTOR('',#60,3.5E-1);
#62=CARTESIAN_POINT('',(-1.75E-1,0.E0,1.125E0));
#63=LINE('',#62,#61);
#64=CARTESIAN_POINT('',(1.75E-1,0.E0,8.75E-1));
#65=DIRECTION('',(0.E0,-1.E0,0.E0));
#66=DIRECTION('',(1.E0,0.E0,0.E0));
#67=AXIS2_PLACEMENT_3D('',#64,#65,#66);
#69=DIRECTION('',(0.E0,0.E0,-1.E0));
#70=VECTOR('',#69,1.75E0);
#71=CARTESIAN_POINT('',(4.25E-1,0.E0,8.75E-1));
#72=LINE('',#71,#70);
#73=DIRECTION('',(0.E0,1.E0,0.E0));
#74=VECTOR('',#73,1.2E-1);
#75=CARTESIAN_POINT('',(-1.81E-1,0.E0,9.69E-1));
#76=LINE('',#75,#74);
#77=DIRECTION('',(0.E0,1.E0,0.E0));
#78=VECTOR('',#77,1.2E-1);
#79=CARTESIAN_POINT('',(3.1E-2,0.E0,9.69E-1));
#80=LINE('',#79,#78);
#81=DIRECTION('',(0.E0,1.E0,0.E0));
#82=VECTOR('',#81,1.2E-1);
#83=CARTESIAN_POINT('',(3.1E-2,0.E0,7.81E-1));
#84=LINE('',#83,#82);
#85=DIRECTION('',(0.E0,1.E0,0.E0));
#86=VECTOR('',#85,1.2E-1);
#87=CARTESIAN_POINT('',(-1.81E-1,0.E0,7.81E-1));
#88=LINE('',#87,#86);
#89=DIRECTION('',(1.E0,0.E0,0.E0));
#90=VECTOR('',#89,2.12E-1);
#91=CARTESIAN_POINT('',(-1.81E-1,1.2E-1,-9.69E-1));
#92=LINE('',#91,#90);
#93=CARTESIAN_POINT('',(-1.81E-1,1.2E-1,-8.75E-1));
#94=DIRECTION('',(0.E0,1.E0,0.E0));
#95=DIRECTION('',(0.E0,0.E0,-1.E0));
#96=AXIS2_PLACEMENT_3D('',#93,#94,#95);
#98=DIRECTION('',(-1.E0,0.E0,0.E0));
#99=VECTOR('',#98,2.12E-1);
#100=CARTESIAN_POINT('',(3.1E-2,1.2E-1,-7.81E-1));
#101=LINE('',#100,#99);
#102=CARTESIAN_POINT('',(3.1E-2,1.2E-1,-8.75E-1));
#103=DIRECTION('',(0.E0,1.E0,0.E0));
#104=DIRECTION('',(0.E0,0.E0,1.E0));
#105=AXIS2_PLACEMENT_3D('',#102,#103,#104);
#107=CARTESIAN_POINT('',(-1.81E-1,1.2E-1,8.75E-1));
#108=DIRECTION('',(0.E0,1.E0,0.E0));
#109=DIRECTION('',(0.E0,0.E0,-1.E0));
#110=AXIS2_PLACEMENT_3D('',#107,#108,#109);
#112=DIRECTION('',(-1.E0,0.E0,0.E0));
#113=VECTOR('',#112,2.12E-1);
#114=CARTESIAN_POINT('',(3.1E-2,1.2E-1,9.69E-1));
#115=LINE('',#114,#113);
#116=CARTESIAN_POINT('',(3.1E-2,1.2E-1,8.75E-1));
#117=DIRECTION('',(0.E0,1.E0,0.E0));
#118=DIRECTION('',(0.E0,0.E0,1.E0));
#119=AXIS2_PLACEMENT_3D('',#116,#117,#118);
#121=DIRECTION('',(1.E0,0.E0,0.E0));
#122=VECTOR('',#121,2.12E-1);
#123=CARTESIAN_POINT('',(-1.81E-1,1.2E-1,7.81E-1));
#124=LINE('',#123,#122);
#125=CARTESIAN_POINT('',(1.75E-1,1.2E-1,-8.75E-1));
#126=DIRECTION('',(0.E0,1.E0,0.E0));
#127=DIRECTION('',(1.E0,0.E0,0.E0));
#128=AXIS2_PLACEMENT_3D('',#125,#126,#127);
#130=DIRECTION('',(0.E0,0.E0,-1.E0));
#131=VECTOR('',#130,1.75E0);
#132=CARTESIAN_POINT('',(4.25E-1,1.2E-1,8.75E-1));
#133=LINE('',#132,#131);
#134=CARTESIAN_POINT('',(1.75E-1,1.2E-1,8.75E-1));
#135=DIRECTION('',(0.E0,1.E0,0.E0));
#136=DIRECTION('',(0.E0,0.E0,1.E0));
#137=AXIS2_PLACEMENT_3D('',#134,#135,#136);
#139=DIRECTION('',(1.E0,0.E0,0.E0));
#140=VECTOR('',#139,3.5E-1);
#141=CARTESIAN_POINT('',(-1.75E-1,1.2E-1,1.125E0));
#142=LINE('',#141,#140);
#143=CARTESIAN_POINT('',(-1.75E-1,1.2E-1,8.75E-1));
#144=DIRECTION('',(0.E0,1.E0,0.E0));
#145=DIRECTION('',(-1.E0,0.E0,0.E0));
#146=AXIS2_PLACEMENT_3D('',#143,#144,#145);
#148=DIRECTION('',(0.E0,0.E0,1.E0));
#149=VECTOR('',#148,1.75E0);
#150=CARTESIAN_POINT('',(-4.25E-1,1.2E-1,-8.75E-1));
#151=LINE('',#150,#149);
#152=CARTESIAN_POINT('',(-1.75E-1,1.2E-1,-8.75E-1));
#153=DIRECTION('',(0.E0,1.E0,0.E0));
#154=DIRECTION('',(0.E0,0.E0,-1.E0));
#155=AXIS2_PLACEMENT_3D('',#152,#153,#154);
#157=DIRECTION('',(-1.E0,0.E0,0.E0));
#158=VECTOR('',#157,3.5E-1);
#159=CARTESIAN_POINT('',(1.75E-1,1.2E-1,-1.125E0));
#160=LINE('',#159,#158);
#161=DIRECTION('',(0.E0,1.E0,0.E0));
#162=VECTOR('',#161,1.2E-1);
#163=CARTESIAN_POINT('',(-1.81E-1,0.E0,-9.69E-1));
#164=LINE('',#163,#162);
#165=DIRECTION('',(0.E0,1.E0,0.E0));
#166=VECTOR('',#165,1.2E-1);
#167=CARTESIAN_POINT('',(-1.81E-1,0.E0,-7.81E-1));
#168=LINE('',#167,#166);
#169=DIRECTION('',(0.E0,1.E0,0.E0));
#170=VECTOR('',#169,1.2E-1);
#171=CARTESIAN_POINT('',(3.1E-2,0.E0,-7.81E-1));
#172=LINE('',#171,#170);
#173=DIRECTION('',(0.E0,1.E0,0.E0));
#174=VECTOR('',#173,1.2E-1);
#175=CARTESIAN_POINT('',(3.1E-2,0.E0,-9.69E-1));
#176=LINE('',#175,#174);
#177=DIRECTION('',(0.E0,-1.E0,0.E0));
#178=VECTOR('',#177,1.2E-1);
#179=CARTESIAN_POINT('',(4.25E-1,1.2E-1,-8.75E-1));
#180=LINE('',#179,#178);
#181=DIRECTION('',(0.E0,-1.E0,0.E0));
#182=VECTOR('',#181,1.2E-1);
#183=CARTESIAN_POINT('',(4.25E-1,1.2E-1,8.75E-1));
#184=LINE('',#183,#182);
#185=DIRECTION('',(0.E0,-1.E0,0.E0));
#186=VECTOR('',#185,1.2E-1);
#187=CARTESIAN_POINT('',(-1.75E-1,1.2E-1,1.125E0));
#188=LINE('',#187,#186);
#189=DIRECTION('',(0.E0,-1.E0,0.E0));
#190=VECTOR('',#189,1.2E-1);
#191=CARTESIAN_POINT('',(1.75E-1,1.2E-1,1.125E0));
#192=LINE('',#191,#190);
#193=DIRECTION('',(0.E0,-1.E0,0.E0));
#194=VECTOR('',#193,1.2E-1);
#195=CARTESIAN_POINT('',(-4.25E-1,1.2E-1,-8.75E-1));
#196=LINE('',#195,#194);
#197=DIRECTION('',(0.E0,-1.E0,0.E0));
#198=VECTOR('',#197,1.2E-1);
#199=CARTESIAN_POINT('',(-4.25E-1,1.2E-1,8.75E-1));
#200=LINE('',#199,#198);
#201=DIRECTION('',(0.E0,-1.E0,0.E0));
#202=VECTOR('',#201,1.2E-1);
#203=CARTESIAN_POINT('',(1.75E-1,1.2E-1,-1.125E0));
#204=LINE('',#203,#202);
#205=DIRECTION('',(0.E0,-1.E0,0.E0));
#206=VECTOR('',#205,1.2E-1);
#207=CARTESIAN_POINT('',(-1.75E-1,1.2E-1,-1.125E0));
#208=LINE('',#207,#206);
#209=CARTESIAN_POINT('',(-1.81E-1,0.E0,7.81E-1));
#210=CARTESIAN_POINT('',(-1.81E-1,0.E0,9.69E-1));
#211=VERTEX_POINT('',#209);
#212=VERTEX_POINT('',#210);
#213=CARTESIAN_POINT('',(3.1E-2,0.E0,7.81E-1));
#214=VERTEX_POINT('',#213);
#215=CARTESIAN_POINT('',(3.1E-2,0.E0,9.69E-1));
#216=VERTEX_POINT('',#215);
#217=CARTESIAN_POINT('',(-1.81E-1,0.E0,-9.69E-1));
#218=CARTESIAN_POINT('',(3.1E-2,0.E0,-9.69E-1));
#219=VERTEX_POINT('',#217);
#220=VERTEX_POINT('',#218);
#221=CARTESIAN_POINT('',(3.1E-2,0.E0,-7.81E-1));
#222=VERTEX_POINT('',#221);
#223=CARTESIAN_POINT('',(-1.81E-1,0.E0,-7.81E-1));
#224=VERTEX_POINT('',#223);
#225=CARTESIAN_POINT('',(-1.81E-1,1.2E-1,7.81E-1));
#226=CARTESIAN_POINT('',(-1.81E-1,1.2E-1,9.69E-1));
#227=VERTEX_POINT('',#225);
#228=VERTEX_POINT('',#226);
#229=CARTESIAN_POINT('',(3.1E-2,1.2E-1,7.81E-1));
#230=VERTEX_POINT('',#229);
#231=CARTESIAN_POINT('',(3.1E-2,1.2E-1,9.69E-1));
#232=VERTEX_POINT('',#231);
#233=CARTESIAN_POINT('',(-1.81E-1,1.2E-1,-9.69E-1));
#234=CARTESIAN_POINT('',(3.1E-2,1.2E-1,-9.69E-1));
#235=VERTEX_POINT('',#233);
#236=VERTEX_POINT('',#234);
#237=CARTESIAN_POINT('',(3.1E-2,1.2E-1,-7.81E-1));
#238=VERTEX_POINT('',#237);
#239=CARTESIAN_POINT('',(-1.81E-1,1.2E-1,-7.81E-1));
#240=VERTEX_POINT('',#239);
#241=CARTESIAN_POINT('',(1.75E-1,0.E0,-1.125E0));
#242=CARTESIAN_POINT('',(4.25E-1,0.E0,-8.75E-1));
#243=VERTEX_POINT('',#241);
#244=VERTEX_POINT('',#242);
#245=CARTESIAN_POINT('',(4.25E-1,1.2E-1,-8.75E-1));
#246=VERTEX_POINT('',#245);
#247=CARTESIAN_POINT('',(1.75E-1,1.2E-1,-1.125E0));
#248=VERTEX_POINT('',#247);
#249=CARTESIAN_POINT('',(-4.25E-1,0.E0,-8.75E-1));
#250=CARTESIAN_POINT('',(-1.75E-1,0.E0,-1.125E0));
#251=VERTEX_POINT('',#249);
#252=VERTEX_POINT('',#250);
#253=CARTESIAN_POINT('',(-1.75E-1,1.2E-1,-1.125E0));
#254=VERTEX_POINT('',#253);
#255=CARTESIAN_POINT('',(-4.25E-1,1.2E-1,-8.75E-1));
#256=VERTEX_POINT('',#255);
#257=CARTESIAN_POINT('',(-1.75E-1,0.E0,1.125E0));
#258=CARTESIAN_POINT('',(-4.25E-1,0.E0,8.75E-1));
#259=VERTEX_POINT('',#257);
#260=VERTEX_POINT('',#258);
#261=CARTESIAN_POINT('',(-4.25E-1,1.2E-1,8.75E-1));
#262=VERTEX_POINT('',#261);
#263=CARTESIAN_POINT('',(-1.75E-1,1.2E-1,1.125E0));
#264=VERTEX_POINT('',#263);
#265=CARTESIAN_POINT('',(4.25E-1,0.E0,8.75E-1));
#266=CARTESIAN_POINT('',(1.75E-1,0.E0,1.125E0));
#267=VERTEX_POINT('',#265);
#268=VERTEX_POINT('',#266);
#269=CARTESIAN_POINT('',(1.75E-1,1.2E-1,1.125E0));
#270=VERTEX_POINT('',#269);
#271=CARTESIAN_POINT('',(4.25E-1,1.2E-1,8.75E-1));
#272=VERTEX_POINT('',#271);
#273=CARTESIAN_POINT('',(0.E0,0.E0,0.E0));
#274=DIRECTION('',(0.E0,1.E0,0.E0));
#275=DIRECTION('',(1.E0,0.E0,0.E0));
#276=AXIS2_PLACEMENT_3D('',#273,#274,#275);
#277=PLANE('',#276);
#279=ORIENTED_EDGE('',*,*,#278,.F.);
#281=ORIENTED_EDGE('',*,*,#280,.T.);
#283=ORIENTED_EDGE('',*,*,#282,.F.);
#285=ORIENTED_EDGE('',*,*,#284,.T.);
#287=ORIENTED_EDGE('',*,*,#286,.F.);
#289=ORIENTED_EDGE('',*,*,#288,.T.);
#291=ORIENTED_EDGE('',*,*,#290,.F.);
#293=ORIENTED_EDGE('',*,*,#292,.T.);
#294=EDGE_LOOP('',(#279,#281,#283,#285,#287,#289,#291,#293));
#295=FACE_OUTER_BOUND('',#294,.F.);
#297=ORIENTED_EDGE('',*,*,#296,.T.);
#299=ORIENTED_EDGE('',*,*,#298,.F.);
#301=ORIENTED_EDGE('',*,*,#300,.T.);
#303=ORIENTED_EDGE('',*,*,#302,.F.);
#304=EDGE_LOOP('',(#297,#299,#301,#303));
#305=FACE_BOUND('',#304,.F.);
#307=ORIENTED_EDGE('',*,*,#306,.F.);
#309=ORIENTED_EDGE('',*,*,#308,.T.);
#311=ORIENTED_EDGE('',*,*,#310,.F.);
#313=ORIENTED_EDGE('',*,*,#312,.T.);
#314=EDGE_LOOP('',(#307,#309,#311,#313));
#315=FACE_BOUND('',#314,.F.);
#316=ADVANCED_FACE('',(#295,#305,#315),#277,.F.);
#317=CARTESIAN_POINT('',(-1.81E-1,6.E-2,8.75E-1));
#318=DIRECTION('',(0.E0,1.E0,0.E0));
#319=DIRECTION('',(0.E0,0.E0,-1.E0));
#320=AXIS2_PLACEMENT_3D('',#317,#318,#319);
#321=CYLINDRICAL_SURFACE('',#320,9.4E-2);
#322=ORIENTED_EDGE('',*,*,#306,.T.);
#324=ORIENTED_EDGE('',*,*,#323,.T.);
#326=ORIENTED_EDGE('',*,*,#325,.F.);
#328=ORIENTED_EDGE('',*,*,#327,.F.);
#329=EDGE_LOOP('',(#322,#324,#326,#328));
#330=FACE_OUTER_BOUND('',#329,.F.);
#331=ADVANCED_FACE('',(#330),#321,.F.);
#332=CARTESIAN_POINT('',(-7.5E-2,6.E-2,9.69E-1));
#333=DIRECTION('',(0.E0,0.E0,1.E0));
#334=DIRECTION('',(-1.E0,0.E0,0.E0));
#335=AXIS2_PLACEMENT_3D('',#332,#333,#334);
#336=PLANE('',#335);
#337=ORIENTED_EDGE('',*,*,#312,.F.);
#339=ORIENTED_EDGE('',*,*,#338,.T.);
#341=ORIENTED_EDGE('',*,*,#340,.T.);
#342=ORIENTED_EDGE('',*,*,#323,.F.);
#343=EDGE_LOOP('',(#337,#339,#341,#342));
#344=FACE_OUTER_BOUND('',#343,.F.);
#345=ADVANCED_FACE('',(#344),#336,.F.);
#346=CARTESIAN_POINT('',(3.1E-2,6.E-2,8.75E-1));
#347=DIRECTION('',(0.E0,1.E0,0.E0));
#348=DIRECTION('',(0.E0,0.E0,1.E0));
#349=AXIS2_PLACEMENT_3D('',#346,#347,#348);
#350=CYLINDRICAL_SURFACE('',#349,9.4E-2);
#351=ORIENTED_EDGE('',*,*,#310,.T.);
#353=ORIENTED_EDGE('',*,*,#352,.T.);
#355=ORIENTED_EDGE('',*,*,#354,.F.);
#356=ORIENTED_EDGE('',*,*,#338,.F.);
#357=EDGE_LOOP('',(#351,#353,#355,#356));
#358=FACE_OUTER_BOUND('',#357,.F.);
#359=ADVANCED_FACE('',(#358),#350,.F.);
#360=CARTESIAN_POINT('',(-7.5E-2,6.E-2,7.81E-1));
#361=DIRECTION('',(0.E0,0.E0,-1.E0));
#362=DIRECTION('',(1.E0,0.E0,0.E0));
#363=AXIS2_PLACEMENT_3D('',#360,#361,#362);
#364=PLANE('',#363);
#365=ORIENTED_EDGE('',*,*,#308,.F.);
#366=ORIENTED_EDGE('',*,*,#327,.T.);
#368=ORIENTED_EDGE('',*,*,#367,.T.);
#369=ORIENTED_EDGE('',*,*,#352,.F.);
#370=EDGE_LOOP('',(#365,#366,#368,#369));
#371=FACE_OUTER_BOUND('',#370,.F.);
#372=ADVANCED_FACE('',(#371),#364,.F.);
#373=CARTESIAN_POINT('',(0.E0,1.2E-1,0.E0));
#374=DIRECTION('',(0.E0,1.E0,0.E0));
#375=DIRECTION('',(1.E0,0.E0,0.E0));
#376=AXIS2_PLACEMENT_3D('',#373,#374,#375);
#377=PLANE('',#376);
#379=ORIENTED_EDGE('',*,*,#378,.F.);
#381=ORIENTED_EDGE('',*,*,#380,.F.);
#383=ORIENTED_EDGE('',*,*,#382,.F.);
#385=ORIENTED_EDGE('',*,*,#384,.F.);
#387=ORIENTED_EDGE('',*,*,#386,.F.);
#389=ORIENTED_EDGE('',*,*,#388,.F.);
#391=ORIENTED_EDGE('',*,*,#390,.F.);
#393=ORIENTED_EDGE('',*,*,#392,.F.);
#394=EDGE_LOOP('',(#379,#381,#383,#385,#387,#389,#391,#393));
#395=FACE_OUTER_BOUND('',#394,.F.);
#396=ORIENTED_EDGE('',*,*,#325,.T.);
#397=ORIENTED_EDGE('',*,*,#340,.F.);
#398=ORIENTED_EDGE('',*,*,#354,.T.);
#399=ORIENTED_EDGE('',*,*,#367,.F.);
#400=EDGE_LOOP('',(#396,#397,#398,#399));
#401=FACE_BOUND('',#400,.F.);
#403=ORIENTED_EDGE('',*,*,#402,.F.);
#405=ORIENTED_EDGE('',*,*,#404,.T.);
#407=ORIENTED_EDGE('',*,*,#406,.F.);
#409=ORIENTED_EDGE('',*,*,#408,.T.);
#410=EDGE_LOOP('',(#403,#405,#407,#409));
#411=FACE_BOUND('',#410,.F.);
#412=ADVANCED_FACE('',(#395,#401,#411),#377,.T.);
#413=CARTESIAN_POINT('',(-7.5E-2,6.E-2,-9.69E-1));
#414=DIRECTION('',(0.E0,0.E0,-1.E0));
#415=DIRECTION('',(1.E0,0.E0,0.E0));
#416=AXIS2_PLACEMENT_3D('',#413,#414,#415);
#417=PLANE('',#416);
#418=ORIENTED_EDGE('',*,*,#296,.F.);
#420=ORIENTED_EDGE('',*,*,#419,.T.);
#421=ORIENTED_EDGE('',*,*,#402,.T.);
#423=ORIENTED_EDGE('',*,*,#422,.F.);
#424=EDGE_LOOP('',(#418,#420,#421,#423));
#425=FACE_OUTER_BOUND('',#424,.F.);
#426=ADVANCED_FACE('',(#425),#417,.F.);
#427=CARTESIAN_POINT('',(-1.81E-1,6.E-2,-8.75E-1));
#428=DIRECTION('',(0.E0,1.E0,0.E0));
#429=DIRECTION('',(0.E0,0.E0,-1.E0));
#430=AXIS2_PLACEMENT_3D('',#427,#428,#429);
#431=CYLINDRICAL_SURFACE('',#430,9.4E-2);
#432=ORIENTED_EDGE('',*,*,#302,.T.);
#434=ORIENTED_EDGE('',*,*,#433,.T.);
#435=ORIENTED_EDGE('',*,*,#404,.F.);
#436=ORIENTED_EDGE('',*,*,#419,.F.);
#437=EDGE_LOOP('',(#432,#434,#435,#436));
#438=FACE_OUTER_BOUND('',#437,.F.);
#439=ADVANCED_FACE('',(#438),#431,.F.);
#440=CARTESIAN_POINT('',(-7.5E-2,6.E-2,-7.81E-1));
#441=DIRECTION('',(0.E0,0.E0,1.E0));
#442=DIRECTION('',(-1.E0,0.E0,0.E0));
#443=AXIS2_PLACEMENT_3D('',#440,#441,#442);
#444=PLANE('',#443);
#445=ORIENTED_EDGE('',*,*,#300,.F.);
#447=ORIENTED_EDGE('',*,*,#446,.T.);
#448=ORIENTED_EDGE('',*,*,#406,.T.);
#449=ORIENTED_EDGE('',*,*,#433,.F.);
#450=EDGE_LOOP('',(#445,#447,#448,#449));
#451=FACE_OUTER_BOUND('',#450,.F.);
#452=ADVANCED_FACE('',(#451),#444,.F.);
#453=CARTESIAN_POINT('',(3.1E-2,6.E-2,-8.75E-1));
#454=DIRECTION('',(0.E0,1.E0,0.E0));
#455=DIRECTION('',(0.E0,0.E0,1.E0));
#456=AXIS2_PLACEMENT_3D('',#453,#454,#455);
#457=CYLINDRICAL_SURFACE('',#456,9.4E-2);
#458=ORIENTED_EDGE('',*,*,#298,.T.);
#459=ORIENTED_EDGE('',*,*,#422,.T.);
#460=ORIENTED_EDGE('',*,*,#408,.F.);
#461=ORIENTED_EDGE('',*,*,#446,.F.);
#462=EDGE_LOOP('',(#458,#459,#460,#461));
#463=FACE_OUTER_BOUND('',#462,.F.);
#464=ADVANCED_FACE('',(#463),#457,.F.);
#465=CARTESIAN_POINT('',(1.75E-1,4.32744E-1,-8.75E-1));
#466=DIRECTION('',(0.E0,-1.E0,0.E0));
#467=DIRECTION('',(0.E0,0.E0,-1.E0));
#468=AXIS2_PLACEMENT_3D('',#465,#466,#467);
#469=CYLINDRICAL_SURFACE('',#468,2.5E-1);
#470=ORIENTED_EDGE('',*,*,#278,.T.);
#472=ORIENTED_EDGE('',*,*,#471,.F.);
#473=ORIENTED_EDGE('',*,*,#378,.T.);
#475=ORIENTED_EDGE('',*,*,#474,.T.);
#476=EDGE_LOOP('',(#470,#472,#473,#475));
#477=FACE_OUTER_BOUND('',#476,.F.);
#478=ADVANCED_FACE('',(#477),#469,.T.);
#479=CARTESIAN_POINT('',(4.25E-1,6.E-2,0.E0));
#480=DIRECTION('',(-1.E0,0.E0,0.E0));
#481=DIRECTION('',(0.E0,0.E0,-1.E0));
#482=AXIS2_PLACEMENT_3D('',#479,#480,#481);
#483=PLANE('',#482);
#484=ORIENTED_EDGE('',*,*,#471,.T.);
#485=ORIENTED_EDGE('',*,*,#292,.F.);
#487=ORIENTED_EDGE('',*,*,#486,.F.);
#488=ORIENTED_EDGE('',*,*,#380,.T.);
#489=EDGE_LOOP('',(#484,#485,#487,#488));
#490=FACE_OUTER_BOUND('',#489,.F.);
#491=ADVANCED_FACE('',(#490),#483,.F.);
#492=CARTESIAN_POINT('',(1.75E-1,4.32744E-1,8.75E-1));
#493=DIRECTION('',(0.E0,-1.E0,0.E0));
#494=DIRECTION('',(1.E0,0.E0,0.E0));
#495=AXIS2_PLACEMENT_3D('',#492,#493,#494);
#496=CYLINDRICAL_SURFACE('',#495,2.5E-1);
#497=ORIENTED_EDGE('',*,*,#290,.T.);
#499=ORIENTED_EDGE('',*,*,#498,.F.);
#500=ORIENTED_EDGE('',*,*,#382,.T.);
#501=ORIENTED_EDGE('',*,*,#486,.T.);
#502=EDGE_LOOP('',(#497,#499,#500,#501));
#503=FACE_OUTER_BOUND('',#502,.F.);
#504=ADVANCED_FACE('',(#503),#496,.T.);
#505=CARTESIAN_POINT('',(0.E0,6.E-2,1.125E0));
#506=DIRECTION('',(0.E0,0.E0,-1.E0));
#507=DIRECTION('',(1.E0,0.E0,0.E0));
#508=AXIS2_PLACEMENT_3D('',#505,#506,#507);
#509=PLANE('',#508);
#511=ORIENTED_EDGE('',*,*,#510,.F.);
#512=ORIENTED_EDGE('',*,*,#384,.T.);
#513=ORIENTED_EDGE('',*,*,#498,.T.);
#514=ORIENTED_EDGE('',*,*,#288,.F.);
#515=EDGE_LOOP('',(#511,#512,#513,#514));
#516=FACE_OUTER_BOUND('',#515,.F.);
#517=ADVANCED_FACE('',(#516),#509,.F.);
#518=CARTESIAN_POINT('',(-1.75E-1,4.32744E-1,8.75E-1));
#519=DIRECTION('',(0.E0,-1.E0,0.E0));
#520=DIRECTION('',(0.E0,0.E0,1.E0));
#521=AXIS2_PLACEMENT_3D('',#518,#519,#520);
#522=CYLINDRICAL_SURFACE('',#521,2.5E-1);
#523=ORIENTED_EDGE('',*,*,#286,.T.);
#525=ORIENTED_EDGE('',*,*,#524,.F.);
#526=ORIENTED_EDGE('',*,*,#386,.T.);
#527=ORIENTED_EDGE('',*,*,#510,.T.);
#528=EDGE_LOOP('',(#523,#525,#526,#527));
#529=FACE_OUTER_BOUND('',#528,.F.);
#530=ADVANCED_FACE('',(#529),#522,.T.);
#531=CARTESIAN_POINT('',(-4.25E-1,6.E-2,0.E0));
#532=DIRECTION('',(1.E0,0.E0,0.E0));
#533=DIRECTION('',(0.E0,0.E0,1.E0));
#534=AXIS2_PLACEMENT_3D('',#531,#532,#533);
#535=PLANE('',#534);
#537=ORIENTED_EDGE('',*,*,#536,.F.);
#538=ORIENTED_EDGE('',*,*,#388,.T.);
#539=ORIENTED_EDGE('',*,*,#524,.T.);
#540=ORIENTED_EDGE('',*,*,#284,.F.);
#541=EDGE_LOOP('',(#537,#538,#539,#540));
#542=FACE_OUTER_BOUND('',#541,.F.);
#543=ADVANCED_FACE('',(#542),#535,.F.);
#544=CARTESIAN_POINT('',(-1.75E-1,4.32744E-1,-8.75E-1));
#545=DIRECTION('',(0.E0,-1.E0,0.E0));
#546=DIRECTION('',(-1.E0,0.E0,0.E0));
#547=AXIS2_PLACEMENT_3D('',#544,#545,#546);
#548=CYLINDRICAL_SURFACE('',#547,2.5E-1);
#549=ORIENTED_EDGE('',*,*,#282,.T.);
#551=ORIENTED_EDGE('',*,*,#550,.F.);
#552=ORIENTED_EDGE('',*,*,#390,.T.);
#553=ORIENTED_EDGE('',*,*,#536,.T.);
#554=EDGE_LOOP('',(#549,#551,#552,#553));
#555=FACE_OUTER_BOUND('',#554,.F.);
#556=ADVANCED_FACE('',(#555),#548,.T.);
#557=CARTESIAN_POINT('',(0.E0,6.E-2,-1.125E0));
#558=DIRECTION('',(0.E0,0.E0,1.E0));
#559=DIRECTION('',(-1.E0,0.E0,0.E0));
#560=AXIS2_PLACEMENT_3D('',#557,#558,#559);
#561=PLANE('',#560);
#562=ORIENTED_EDGE('',*,*,#474,.F.);
#563=ORIENTED_EDGE('',*,*,#392,.T.);
#564=ORIENTED_EDGE('',*,*,#550,.T.);
#565=ORIENTED_EDGE('',*,*,#280,.F.);
#566=EDGE_LOOP('',(#562,#563,#564,#565));
#567=FACE_OUTER_BOUND('',#566,.F.);
#568=ADVANCED_FACE('',(#567),#561,.F.);
#569=CLOSED_SHELL('',(#316,#331,#345,#359,#372,#412,#426,#439,#452,#464,#478,
#491,#504,#517,#530,#543,#556,#568));
#570=MANIFOLD_SOLID_BREP('',#569);
#571=DIMENSIONAL_EXPONENTS(1.E0,0.E0,0.E0,0.E0,0.E0,0.E0,0.E0);
#573=LENGTH_MEASURE_WITH_UNIT(LENGTH_MEASURE(2.54E1),#572);
#574=(CONVERSION_BASED_UNIT('INCH',#573)LENGTH_UNIT()NAMED_UNIT(#571));
#575=DIMENSIONAL_EXPONENTS(0.E0,0.E0,0.E0,0.E0,0.E0,0.E0,0.E0);
#577=PLANE_ANGLE_MEASURE_WITH_UNIT(PLANE_ANGLE_MEASURE(1.745329251994E-2),#576);
#578=(CONVERSION_BASED_UNIT('DEGREE',#577)NAMED_UNIT(*)PLANE_ANGLE_UNIT());
#580=UNCERTAINTY_MEASURE_WITH_UNIT(LENGTH_MEASURE(2.408098016543E-4),#574,
'closure',
'Maximum model space distance between geometric entities at asserted connectivities');
#581=(GEOMETRIC_REPRESENTATION_CONTEXT(3)GLOBAL_UNCERTAINTY_ASSIGNED_CONTEXT((
#580))GLOBAL_UNIT_ASSIGNED_CONTEXT((#574,#578,#579))REPRESENTATION_CONTEXT
('ID1','3'));
#582=CARTESIAN_POINT('',(0.E0,0.E0,0.E0));
#583=DIRECTION('',(0.E0,0.E0,1.E0));
#584=DIRECTION('',(1.E0,0.E0,0.E0));
#587=APPLICATION_CONTEXT(
'CONFIGURATION CONTROLLED 3D DESIGNS OF MECHANICAL PARTS AND ASSEMBLIES');
#588=APPLICATION_PROTOCOL_DEFINITION('international standard',
'config_control_design',1994,#587);
#589=DESIGN_CONTEXT('',#587,'design');
#590=MECHANICAL_CONTEXT('',#587,'mechanical');
#591=PRODUCT('199377','199377','NOT SPECIFIED',(#590));
#592=PRODUCT_DEFINITION_FORMATION_WITH_SPECIFIED_SOURCE('1','LAST_VERSION',#591,
.MADE.);
#601=CARTESIAN_POINT('',(0.E0,0.E0,0.E0));
#602=DIRECTION('',(0.E0,0.E0,1.E0));
#603=DIRECTION('',(1.E0,0.E0,0.E0));
#604=AXIS2_PLACEMENT_3D('',#601,#602,#603);
#605=ITEM_DEFINED_TRANSFORMATION('','',#585,#604);
#606=(REPRESENTATION_RELATIONSHIP('','',#586,#598)REPRESENTATION_RELATIONSHIP_WITH_TRANSFORMATION(#605)SHAPE_REPRESENTATION_RELATIONSHIP());
#607=CONTEXT_DEPENDENT_SHAPE_REPRESENTATION(#606,#600);
#609=DIMENSIONAL_EXPONENTS(0.E0,0.E0,0.E0,0.E0,0.E0,0.E0,0.E0);
#611=PLANE_ANGLE_MEASURE_WITH_UNIT(PLANE_ANGLE_MEASURE(1.745329251994E-2),#610);
#612=(CONVERSION_BASED_UNIT('DEGREE',#611)NAMED_UNIT(*)PLANE_ANGLE_UNIT());
#614=UNCERTAINTY_MEASURE_WITH_UNIT(LENGTH_MEASURE(6.116568962020E-3),#608,
'closure',
'Maximum model space distance between geometric entities at asserted connectivities');
#615=(GEOMETRIC_REPRESENTATION_CONTEXT(3)GLOBAL_UNCERTAINTY_ASSIGNED_CONTEXT((
#614))GLOBAL_UNIT_ASSIGNED_CONTEXT((#608,#612,#613))REPRESENTATION_CONTEXT
('ID2','3'));
#616=CARTESIAN_POINT('',(0.E0,0.E0,0.E0));
#617=DIRECTION('',(0.E0,0.E0,1.E0));
#618=DIRECTION('',(1.E0,0.E0,0.E0));
#620=MECHANICAL_CONTEXT('',#587,'mechanical');
#621=PRODUCT('199378_ASM','199378_ASM','NOT SPECIFIED',(#620));
#622=PRODUCT_DEFINITION_FORMATION_WITH_SPECIFIED_SOURCE('1','LAST_VERSION',#621,
.MADE.);
#624=PRODUCT_CATEGORY('part','');
#625=PRODUCT_RELATED_PRODUCT_CATEGORY('assembly','',(#621));
#626=PRODUCT_CATEGORY_RELATIONSHIP('','',#624,#625);
#627=PRODUCT_CATEGORY('part','');
#628=PRODUCT_RELATED_PRODUCT_CATEGORY('detail','',(#591));
#629=PRODUCT_CATEGORY_RELATIONSHIP('','',#627,#628);
#630=SECURITY_CLASSIFICATION_LEVEL('unclassified');
#631=SECURITY_CLASSIFICATION('','',#630);
#632=CC_DESIGN_SECURITY_CLASSIFICATION(#631,(#592,#622,#599));
#633=APPROVAL_STATUS('approved');
#634=APPROVAL(#633,'');
#635=CC_DESIGN_APPROVAL(#634,(#631,#592,#622,#593,#623));
#636=CALENDAR_DATE(117,15,2);
#637=COORDINATED_UNIVERSAL_TIME_OFFSET(6,0,.BEHIND.);
#638=LOCAL_TIME(9,1,5.E0,#637);
#639=DATE_AND_TIME(#636,#638);
#640=APPROVAL_DATE_TIME(#639,#634);
#641=DATE_TIME_ROLE('creation_date');
#642=CC_DESIGN_DATE_AND_TIME_ASSIGNMENT(#639,#641,(#593,#623));
#643=DATE_TIME_ROLE('classification_date');
#644=CC_DESIGN_DATE_AND_TIME_ASSIGNMENT(#639,#643,(#631));
#645=PERSON('UNSPECIFIED','UNSPECIFIED',$,$,$,$);
#646=ORGANIZATION('UNSPECIFIED','UNSPECIFIED','UNSPECIFIED');
#647=PERSON_AND_ORGANIZATION(#645,#646);
#648=APPROVAL_ROLE('approver');
#649=APPROVAL_PERSON_ORGANIZATION(#647,#634,#648);
#650=PERSON_AND_ORGANIZATION_ROLE('creator');
#651=CC_DESIGN_PERSON_AND_ORGANIZATION_ASSIGNMENT(#647,#650,(#592,#622,#593,
#623));
#652=PERSON_AND_ORGANIZATION_ROLE('design_supplier');
#653=CC_DESIGN_PERSON_AND_ORGANIZATION_ASSIGNMENT(#647,#652,(#592,#622));
#654=PERSON_AND_ORGANIZATION_ROLE('classification_officer');
#655=CC_DESIGN_PERSON_AND_ORGANIZATION_ASSIGNMENT(#647,#654,(#631));
#656=PERSON_AND_ORGANIZATION_ROLE('design_owner');
#657=CC_DESIGN_PERSON_AND_ORGANIZATION_ASSIGNMENT(#647,#656,(#621,#591));
#5=CIRCLE('',#4,9.4E-2);
#14=CIRCLE('',#13,9.4E-2);
#27=CIRCLE('',#26,9.4E-2);
#36=CIRCLE('',#35,9.4E-2);
#41=CIRCLE('',#40,2.5E-1);
#50=CIRCLE('',#49,2.5E-1);
#59=CIRCLE('',#58,2.5E-1);
#68=CIRCLE('',#67,2.5E-1);
#97=CIRCLE('',#96,9.4E-2);
#106=CIRCLE('',#105,9.4E-2);
#111=CIRCLE('',#110,9.4E-2);
#120=CIRCLE('',#119,9.4E-2);
#129=CIRCLE('',#128,2.5E-1);
#138=CIRCLE('',#137,2.5E-1);
#147=CIRCLE('',#146,2.5E-1);
#156=CIRCLE('',#155,2.5E-1);
#278=EDGE_CURVE('',#243,#244,#41,.T.);
#280=EDGE_CURVE('',#243,#252,#45,.T.);
#282=EDGE_CURVE('',#251,#252,#50,.T.);
#284=EDGE_CURVE('',#251,#260,#54,.T.);
#286=EDGE_CURVE('',#259,#260,#59,.T.);
#288=EDGE_CURVE('',#259,#268,#63,.T.);
#290=EDGE_CURVE('',#267,#268,#68,.T.);
#292=EDGE_CURVE('',#267,#244,#72,.T.);
#296=EDGE_CURVE('',#219,#220,#22,.T.);
#298=EDGE_CURVE('',#222,#220,#27,.T.);
#300=EDGE_CURVE('',#222,#224,#31,.T.);
#302=EDGE_CURVE('',#219,#224,#36,.T.);
#306=EDGE_CURVE('',#211,#212,#5,.T.);
#308=EDGE_CURVE('',#211,#214,#9,.T.);
#310=EDGE_CURVE('',#216,#214,#14,.T.);
#312=EDGE_CURVE('',#216,#212,#18,.T.);
#323=EDGE_CURVE('',#212,#228,#76,.T.);
#325=EDGE_CURVE('',#227,#228,#111,.T.);
#327=EDGE_CURVE('',#211,#227,#88,.T.);
#338=EDGE_CURVE('',#216,#232,#80,.T.);
#340=EDGE_CURVE('',#232,#228,#115,.T.);
#352=EDGE_CURVE('',#214,#230,#84,.T.);
#354=EDGE_CURVE('',#232,#230,#120,.T.);
#367=EDGE_CURVE('',#227,#230,#124,.T.);
#378=EDGE_CURVE('',#246,#248,#129,.T.);
#380=EDGE_CURVE('',#272,#246,#133,.T.);
#382=EDGE_CURVE('',#270,#272,#138,.T.);
#384=EDGE_CURVE('',#264,#270,#142,.T.);
#386=EDGE_CURVE('',#262,#264,#147,.T.);
#388=EDGE_CURVE('',#256,#262,#151,.T.);
#390=EDGE_CURVE('',#254,#256,#156,.T.);
#392=EDGE_CURVE('',#248,#254,#160,.T.);
#402=EDGE_CURVE('',#235,#236,#92,.T.);
#404=EDGE_CURVE('',#235,#240,#97,.T.);
#406=EDGE_CURVE('',#238,#240,#101,.T.);
#408=EDGE_CURVE('',#238,#236,#106,.T.);
#419=EDGE_CURVE('',#219,#235,#164,.T.);
#422=EDGE_CURVE('',#220,#236,#176,.T.);
#433=EDGE_CURVE('',#224,#240,#168,.T.);
#446=EDGE_CURVE('',#222,#238,#172,.T.);
#471=EDGE_CURVE('',#246,#244,#180,.T.);
#474=EDGE_CURVE('',#248,#243,#204,.T.);
#486=EDGE_CURVE('',#272,#267,#184,.T.);
#498=EDGE_CURVE('',#270,#268,#192,.T.);
#510=EDGE_CURVE('',#264,#259,#188,.T.);
#524=EDGE_CURVE('',#262,#260,#200,.T.);
#536=EDGE_CURVE('',#256,#251,#196,.T.);
#550=EDGE_CURVE('',#254,#252,#208,.T.);
#572=(LENGTH_UNIT()NAMED_UNIT(*)SI_UNIT(.MILLI.,.METRE.));
#576=(NAMED_UNIT(*)PLANE_ANGLE_UNIT()SI_UNIT($,.RADIAN.));
#579=(NAMED_UNIT(*)SI_UNIT($,.STERADIAN.)SOLID_ANGLE_UNIT());
#585=AXIS2_PLACEMENT_3D('',#582,#583,#584);
#586=ADVANCED_BREP_SHAPE_REPRESENTATION('',(#585,#570),#581);
#593=PRODUCT_DEFINITION('design','',#592,#589);
#594=PRODUCT_DEFINITION_SHAPE('','SHAPE FOR 199377.',#593);
#595=SHAPE_DEFINITION_REPRESENTATION(#594,#586);
#596=SHAPE_DEFINITION_REPRESENTATION(#597,#598);
#597=PRODUCT_DEFINITION_SHAPE('','SHAPE FOR 199378_ASM.',#623);
#598=SHAPE_REPRESENTATION('',(#604,#619),#615);
#599=NEXT_ASSEMBLY_USAGE_OCCURRENCE('0','Next assembly relationship','199377',
#623,#593,$);
#600=PRODUCT_DEFINITION_SHAPE('Placement #0',
'Placement of 199377 with respect to 199378_ASM',#599);
#608=(LENGTH_UNIT()NAMED_UNIT(*)SI_UNIT(.MILLI.,.METRE.));
#610=(NAMED_UNIT(*)PLANE_ANGLE_UNIT()SI_UNIT($,.RADIAN.));
#613=(NAMED_UNIT(*)SI_UNIT($,.STERADIAN.)SOLID_ANGLE_UNIT());
#619=AXIS2_PLACEMENT_3D('',#616,#617,#618);
#623=PRODUCT_DEFINITION('design','',#622,#589);
ENDSEC;
END-ISO-10303-21;
