ISO-10303-21;
HEADER;
FILE_DESCRIPTION((''),'2;1');
FILE_NAME('194372_ASM','2016-03-24T',('PDMAdmin'),(''),
'PRO/ENGINEER BY PARAMETRIC TECHNOLOGY CORPORATION, 2013230',
'PRO/ENGINEER BY PARAMETRIC TECHNOLOGY CORPORATION, 2013230','');
FILE_SCHEMA(('CONFIG_CONTROL_DESIGN'));
ENDSEC;
DATA;
#1=DIRECTION('',(0.E0,0.E0,1.E0));
#2=VECTOR('',#1,1.1E1);
#3=CARTESIAN_POINT('',(-3.E0,0.E0,-2.E1));
#4=LINE('',#3,#2);
#5=CARTESIAN_POINT('',(0.E0,0.E0,-9.E0));
#6=DIRECTION('',(0.E0,0.E0,1.E0));
#7=DIRECTION('',(1.E0,0.E0,0.E0));
#8=AXIS2_PLACEMENT_3D('',#5,#6,#7);
#10=CARTESIAN_POINT('',(0.E0,0.E0,-9.E0));
#11=DIRECTION('',(0.E0,0.E0,1.E0));
#12=DIRECTION('',(-1.E0,0.E0,0.E0));
#13=AXIS2_PLACEMENT_3D('',#10,#11,#12);
#15=CARTESIAN_POINT('',(0.E0,0.E0,-9.E0));
#16=DIRECTION('',(0.E0,0.E0,-1.E0));
#17=DIRECTION('',(-1.E0,0.E0,0.E0));
#18=AXIS2_PLACEMENT_3D('',#15,#16,#17);
#20=CARTESIAN_POINT('',(0.E0,0.E0,-9.E0));
#21=DIRECTION('',(0.E0,0.E0,-1.E0));
#22=DIRECTION('',(1.E0,0.E0,0.E0));
#23=AXIS2_PLACEMENT_3D('',#20,#21,#22);
#25=DIRECTION('',(0.E0,0.E0,1.E0));
#26=VECTOR('',#25,1.1E1);
#27=CARTESIAN_POINT('',(3.E0,0.E0,-2.E1));
#28=LINE('',#27,#26);
#29=CARTESIAN_POINT('',(0.E0,0.E0,-2.E1));
#30=DIRECTION('',(0.E0,0.E0,-1.E0));
#31=DIRECTION('',(-1.E0,0.E0,0.E0));
#32=AXIS2_PLACEMENT_3D('',#29,#30,#31);
#34=CARTESIAN_POINT('',(0.E0,0.E0,-2.E1));
#35=DIRECTION('',(0.E0,0.E0,-1.E0));
#36=DIRECTION('',(1.E0,0.E0,0.E0));
#37=AXIS2_PLACEMENT_3D('',#34,#35,#36);
#39=CARTESIAN_POINT('',(0.E0,0.E0,-2.E1));
#40=DIRECTION('',(0.E0,0.E0,1.E0));
#41=DIRECTION('',(-1.E0,0.E0,0.E0));
#42=AXIS2_PLACEMENT_3D('',#39,#40,#41);
#44=CARTESIAN_POINT('',(0.E0,0.E0,-2.E1));
#45=DIRECTION('',(0.E0,0.E0,1.E0));
#46=DIRECTION('',(1.E0,0.E0,0.E0));
#47=AXIS2_PLACEMENT_3D('',#44,#45,#46);
#49=DIRECTION('',(0.E0,0.E0,1.E0));
#50=VECTOR('',#49,1.E1);
#51=CARTESIAN_POINT('',(-2.E0,0.E0,-2.E1));
#52=LINE('',#51,#50);
#53=CARTESIAN_POINT('',(0.E0,0.E0,-1.E1));
#54=DIRECTION('',(0.E0,0.E0,-1.E0));
#55=DIRECTION('',(1.E0,0.E0,0.E0));
#56=AXIS2_PLACEMENT_3D('',#53,#54,#55);
#58=CARTESIAN_POINT('',(0.E0,0.E0,-1.E1));
#59=DIRECTION('',(0.E0,0.E0,-1.E0));
#60=DIRECTION('',(-1.E0,0.E0,0.E0));
#61=AXIS2_PLACEMENT_3D('',#58,#59,#60);
#63=DIRECTION('',(0.E0,0.E0,1.E0));
#64=VECTOR('',#63,1.E1);
#65=CARTESIAN_POINT('',(2.E0,0.E0,-2.E1));
#66=LINE('',#65,#64);
#67=DIRECTION('',(0.E0,0.E0,1.E0));
#68=VECTOR('',#67,9.E0);
#69=CARTESIAN_POINT('',(-2.E0,0.E0,-9.E0));
#70=LINE('',#69,#68);
#71=CARTESIAN_POINT('',(0.E0,0.E0,0.E0));
#72=DIRECTION('',(0.E0,0.E0,1.E0));
#73=DIRECTION('',(-1.E0,0.E0,0.E0));
#74=AXIS2_PLACEMENT_3D('',#71,#72,#73);
#76=CARTESIAN_POINT('',(0.E0,0.E0,0.E0));
#77=DIRECTION('',(0.E0,0.E0,1.E0));
#78=DIRECTION('',(1.E0,0.E0,0.E0));
#79=AXIS2_PLACEMENT_3D('',#76,#77,#78);
#81=CARTESIAN_POINT('',(0.E0,0.E0,1.665334536938E-14));
#82=DIRECTION('',(0.E0,0.E0,-1.E0));
#83=DIRECTION('',(-1.E0,0.E0,0.E0));
#84=AXIS2_PLACEMENT_3D('',#81,#82,#83);
#86=CARTESIAN_POINT('',(0.E0,0.E0,1.665334536938E-14));
#87=DIRECTION('',(0.E0,0.E0,-1.E0));
#88=DIRECTION('',(1.E0,0.E0,0.E0));
#89=AXIS2_PLACEMENT_3D('',#86,#87,#88);
#91=DIRECTION('',(0.E0,0.E0,1.E0));
#92=VECTOR('',#91,9.E0);
#93=CARTESIAN_POINT('',(2.E0,0.E0,-9.E0));
#94=LINE('',#93,#92);
#95=DIRECTION('',(0.E0,0.E0,-1.E0));
#96=VECTOR('',#95,1.E0);
#97=CARTESIAN_POINT('',(-1.95E0,0.E0,1.095420050963E-14));
#98=LINE('',#97,#96);
#99=DIRECTION('',(0.E0,0.E0,-1.E0));
#100=VECTOR('',#99,1.E0);
#101=CARTESIAN_POINT('',(1.95E0,0.E0,1.095420050963E-14));
#102=LINE('',#101,#100);
#103=CARTESIAN_POINT('',(0.E0,0.E0,-1.E0));
#104=DIRECTION('',(0.E0,0.E0,1.E0));
#105=DIRECTION('',(-1.E0,0.E0,0.E0));
#106=AXIS2_PLACEMENT_3D('',#103,#104,#105);
#108=CARTESIAN_POINT('',(0.E0,0.E0,-1.E0));
#109=DIRECTION('',(0.E0,0.E0,1.E0));
#110=DIRECTION('',(1.E0,0.E0,0.E0));
#111=AXIS2_PLACEMENT_3D('',#108,#109,#110);
#113=CARTESIAN_POINT('',(0.E0,0.E0,-1.E0));
#114=DIRECTION('',(0.E0,0.E0,-1.E0));
#115=DIRECTION('',(1.E0,0.E0,0.E0));
#116=AXIS2_PLACEMENT_3D('',#113,#114,#115);
#118=CARTESIAN_POINT('',(0.E0,0.E0,-1.E0));
#119=DIRECTION('',(0.E0,0.E0,-1.E0));
#120=DIRECTION('',(-1.E0,0.E0,0.E0));
#121=AXIS2_PLACEMENT_3D('',#118,#119,#120);
#123=DIRECTION('',(0.E0,0.E0,-1.E0));
#124=VECTOR('',#123,1.E0);
#125=CARTESIAN_POINT('',(-1.925E0,0.E0,1.095420050963E-14));
#126=LINE('',#125,#124);
#127=DIRECTION('',(0.E0,0.E0,-1.E0));
#128=VECTOR('',#127,1.E0);
#129=CARTESIAN_POINT('',(1.925E0,0.E0,1.095420050963E-14));
#130=LINE('',#129,#128);
#131=CARTESIAN_POINT('',(0.E0,0.E0,1.665334536938E-14));
#132=DIRECTION('',(0.E0,0.E0,1.E0));
#133=DIRECTION('',(1.E0,0.E0,0.E0));
#134=AXIS2_PLACEMENT_3D('',#131,#132,#133);
#136=CARTESIAN_POINT('',(0.E0,0.E0,1.665334536938E-14));
#137=DIRECTION('',(0.E0,0.E0,1.E0));
#138=DIRECTION('',(-1.E0,0.E0,0.E0));
#139=AXIS2_PLACEMENT_3D('',#136,#137,#138);
#141=CARTESIAN_POINT('',(-1.925E0,0.E0,1.665334536938E-14));
#142=CARTESIAN_POINT('',(1.925E0,0.E0,1.665334536938E-14));
#143=VERTEX_POINT('',#141);
#144=VERTEX_POINT('',#142);
#145=CARTESIAN_POINT('',(1.925E0,0.E0,-1.E0));
#146=VERTEX_POINT('',#145);
#147=CARTESIAN_POINT('',(2.E0,0.E0,-1.E1));
#148=CARTESIAN_POINT('',(-2.E0,0.E0,-1.E1));
#149=VERTEX_POINT('',#147);
#150=VERTEX_POINT('',#148);
#151=CARTESIAN_POINT('',(2.E0,0.E0,-2.E1));
#152=VERTEX_POINT('',#151);
#153=CARTESIAN_POINT('',(1.95E0,0.E0,1.665334536938E-14));
#154=CARTESIAN_POINT('',(-1.95E0,0.E0,1.665334536938E-14));
#155=VERTEX_POINT('',#153);
#156=VERTEX_POINT('',#154);
#157=CARTESIAN_POINT('',(1.95E0,0.E0,-1.E0));
#158=VERTEX_POINT('',#157);
#159=CARTESIAN_POINT('',(3.E0,0.E0,-2.E1));
#160=CARTESIAN_POINT('',(-3.E0,0.E0,-2.E1));
#161=VERTEX_POINT('',#159);
#162=VERTEX_POINT('',#160);
#163=CARTESIAN_POINT('',(-2.E0,0.E0,0.E0));
#164=CARTESIAN_POINT('',(2.E0,0.E0,0.E0));
#165=VERTEX_POINT('',#163);
#166=VERTEX_POINT('',#164);
#167=CARTESIAN_POINT('',(2.E0,0.E0,-9.E0));
#168=CARTESIAN_POINT('',(-2.E0,0.E0,-9.E0));
#169=VERTEX_POINT('',#167);
#170=VERTEX_POINT('',#168);
#171=CARTESIAN_POINT('',(-3.E0,0.E0,-9.E0));
#172=CARTESIAN_POINT('',(3.E0,0.E0,-9.E0));
#173=VERTEX_POINT('',#171);
#174=VERTEX_POINT('',#172);
#175=CARTESIAN_POINT('',(-1.95E0,0.E0,-1.E0));
#176=VERTEX_POINT('',#175);
#177=CARTESIAN_POINT('',(-2.E0,0.E0,-2.E1));
#178=VERTEX_POINT('',#177);
#179=CARTESIAN_POINT('',(-1.925E0,0.E0,-1.E0));
#180=VERTEX_POINT('',#179);
#181=CARTESIAN_POINT('',(0.E0,0.E0,-9.E0));
#182=DIRECTION('',(0.E0,0.E0,-1.E0));
#183=DIRECTION('',(-1.E0,0.E0,0.E0));
#184=AXIS2_PLACEMENT_3D('',#181,#182,#183);
#185=CYLINDRICAL_SURFACE('',#184,3.E0);
#187=ORIENTED_EDGE('',*,*,#186,.T.);
#189=ORIENTED_EDGE('',*,*,#188,.F.);
#191=ORIENTED_EDGE('',*,*,#190,.T.);
#193=ORIENTED_EDGE('',*,*,#192,.T.);
#194=EDGE_LOOP('',(#187,#189,#191,#193));
#195=FACE_OUTER_BOUND('',#194,.F.);
#196=ADVANCED_FACE('',(#195),#185,.T.);
#197=CARTESIAN_POINT('',(-3.12E0,3.122569720900E0,-9.E0));
#198=DIRECTION('',(0.E0,0.E0,-1.E0));
#199=DIRECTION('',(1.E0,0.E0,0.E0));
#200=AXIS2_PLACEMENT_3D('',#197,#198,#199);
#201=PLANE('',#200);
#202=ORIENTED_EDGE('',*,*,#186,.F.);
#204=ORIENTED_EDGE('',*,*,#203,.F.);
#205=EDGE_LOOP('',(#202,#204));
#206=FACE_OUTER_BOUND('',#205,.F.);
#208=ORIENTED_EDGE('',*,*,#207,.F.);
#210=ORIENTED_EDGE('',*,*,#209,.F.);
#211=EDGE_LOOP('',(#208,#210));
#212=FACE_BOUND('',#211,.F.);
#213=ADVANCED_FACE('',(#206,#212),#201,.F.);
#214=CARTESIAN_POINT('',(0.E0,0.E0,-9.E0));
#215=DIRECTION('',(0.E0,0.E0,-1.E0));
#216=DIRECTION('',(-1.E0,0.E0,0.E0));
#217=AXIS2_PLACEMENT_3D('',#214,#215,#216);
#218=CYLINDRICAL_SURFACE('',#217,3.E0);
#219=ORIENTED_EDGE('',*,*,#192,.F.);
#221=ORIENTED_EDGE('',*,*,#220,.T.);
#222=ORIENTED_EDGE('',*,*,#188,.T.);
#223=ORIENTED_EDGE('',*,*,#203,.T.);
#224=EDGE_LOOP('',(#219,#221,#222,#223));
#225=FACE_OUTER_BOUND('',#224,.F.);
#226=ADVANCED_FACE('',(#225),#218,.T.);
#227=CARTESIAN_POINT('',(-3.12E0,3.122569720900E0,-2.E1));
#228=DIRECTION('',(0.E0,0.E0,-1.E0));
#229=DIRECTION('',(1.E0,0.E0,0.E0));
#230=AXIS2_PLACEMENT_3D('',#227,#228,#229);
#231=PLANE('',#230);
#232=ORIENTED_EDGE('',*,*,#190,.F.);
#233=ORIENTED_EDGE('',*,*,#220,.F.);
#234=EDGE_LOOP('',(#232,#233));
#235=FACE_OUTER_BOUND('',#234,.F.);
#237=ORIENTED_EDGE('',*,*,#236,.F.);
#239=ORIENTED_EDGE('',*,*,#238,.F.);
#240=EDGE_LOOP('',(#237,#239));
#241=FACE_BOUND('',#240,.F.);
#242=ADVANCED_FACE('',(#235,#241),#231,.T.);
#243=CARTESIAN_POINT('',(0.E0,0.E0,-1.E1));
#244=DIRECTION('',(0.E0,0.E0,-1.E0));
#245=DIRECTION('',(-1.E0,0.E0,0.E0));
#246=AXIS2_PLACEMENT_3D('',#243,#244,#245);
#247=CYLINDRICAL_SURFACE('',#246,2.E0);
#249=ORIENTED_EDGE('',*,*,#248,.T.);
#251=ORIENTED_EDGE('',*,*,#250,.F.);
#252=ORIENTED_EDGE('',*,*,#236,.T.);
#254=ORIENTED_EDGE('',*,*,#253,.T.);
#255=EDGE_LOOP('',(#249,#251,#252,#254));
#256=FACE_OUTER_BOUND('',#255,.F.);
#257=ADVANCED_FACE('',(#256),#247,.F.);
#258=CARTESIAN_POINT('',(2.08E0,2.08E0,-1.E1));
#259=DIRECTION('',(0.E0,0.E0,-1.E0));
#260=DIRECTION('',(0.E0,-1.E0,0.E0));
#261=AXIS2_PLACEMENT_3D('',#258,#259,#260);
#262=PLANE('',#261);
#263=ORIENTED_EDGE('',*,*,#248,.F.);
#265=ORIENTED_EDGE('',*,*,#264,.F.);
#266=EDGE_LOOP('',(#263,#265));
#267=FACE_OUTER_BOUND('',#266,.F.);
#268=ADVANCED_FACE('',(#267),#262,.T.);
#269=CARTESIAN_POINT('',(0.E0,0.E0,-1.E1));
#270=DIRECTION('',(0.E0,0.E0,-1.E0));
#271=DIRECTION('',(-1.E0,0.E0,0.E0));
#272=AXIS2_PLACEMENT_3D('',#269,#270,#271);
#273=CYLINDRICAL_SURFACE('',#272,2.E0);
#274=ORIENTED_EDGE('',*,*,#253,.F.);
#275=ORIENTED_EDGE('',*,*,#238,.T.);
#276=ORIENTED_EDGE('',*,*,#250,.T.);
#277=ORIENTED_EDGE('',*,*,#264,.T.);
#278=EDGE_LOOP('',(#274,#275,#276,#277));
#279=FACE_OUTER_BOUND('',#278,.F.);
#280=ADVANCED_FACE('',(#279),#273,.F.);
#281=CARTESIAN_POINT('',(0.E0,0.E0,0.E0));
#282=DIRECTION('',(0.E0,0.E0,-1.E0));
#283=DIRECTION('',(-1.E0,0.E0,0.E0));
#284=AXIS2_PLACEMENT_3D('',#281,#282,#283);
#285=CYLINDRICAL_SURFACE('',#284,2.E0);
#287=ORIENTED_EDGE('',*,*,#286,.T.);
#289=ORIENTED_EDGE('',*,*,#288,.F.);
#290=ORIENTED_EDGE('',*,*,#207,.T.);
#292=ORIENTED_EDGE('',*,*,#291,.T.);
#293=EDGE_LOOP('',(#287,#289,#290,#292));
#294=FACE_OUTER_BOUND('',#293,.F.);
#295=ADVANCED_FACE('',(#294),#285,.T.);
#296=CARTESIAN_POINT('',(-2.08E0,2.082084014203E0,0.E0));
#297=DIRECTION('',(0.E0,0.E0,-1.E0));
#298=DIRECTION('',(1.E0,0.E0,0.E0));
#299=AXIS2_PLACEMENT_3D('',#296,#297,#298);
#300=PLANE('',#299);
#302=ORIENTED_EDGE('',*,*,#301,.F.);
#303=ORIENTED_EDGE('',*,*,#286,.F.);
#304=EDGE_LOOP('',(#302,#303));
#305=FACE_OUTER_BOUND('',#304,.F.);
#307=ORIENTED_EDGE('',*,*,#306,.F.);
#309=ORIENTED_EDGE('',*,*,#308,.F.);
#310=EDGE_LOOP('',(#307,#309));
#311=FACE_BOUND('',#310,.F.);
#312=ADVANCED_FACE('',(#305,#311),#300,.F.);
#313=CARTESIAN_POINT('',(0.E0,0.E0,0.E0));
#314=DIRECTION('',(0.E0,0.E0,-1.E0));
#315=DIRECTION('',(-1.E0,0.E0,0.E0));
#316=AXIS2_PLACEMENT_3D('',#313,#314,#315);
#317=CYLINDRICAL_SURFACE('',#316,2.E0);
#318=ORIENTED_EDGE('',*,*,#291,.F.);
#319=ORIENTED_EDGE('',*,*,#209,.T.);
#320=ORIENTED_EDGE('',*,*,#288,.T.);
#321=ORIENTED_EDGE('',*,*,#301,.T.);
#322=EDGE_LOOP('',(#318,#319,#320,#321));
#323=FACE_OUTER_BOUND('',#322,.F.);
#324=ADVANCED_FACE('',(#323),#317,.T.);
#325=CARTESIAN_POINT('',(0.E0,0.E0,-1.E0));
#326=DIRECTION('',(0.E0,0.E0,1.E0));
#327=DIRECTION('',(1.E0,0.E0,0.E0));
#328=AXIS2_PLACEMENT_3D('',#325,#326,#327);
#329=CYLINDRICAL_SURFACE('',#328,1.95E0);
#331=ORIENTED_EDGE('',*,*,#330,.F.);
#332=ORIENTED_EDGE('',*,*,#306,.T.);
#334=ORIENTED_EDGE('',*,*,#333,.T.);
#336=ORIENTED_EDGE('',*,*,#335,.T.);
#337=EDGE_LOOP('',(#331,#332,#334,#336));
#338=FACE_OUTER_BOUND('',#337,.F.);
#339=ADVANCED_FACE('',(#338),#329,.F.);
#340=CARTESIAN_POINT('',(0.E0,0.E0,-1.E0));
#341=DIRECTION('',(0.E0,0.E0,1.E0));
#342=DIRECTION('',(1.E0,0.E0,0.E0));
#343=AXIS2_PLACEMENT_3D('',#340,#341,#342);
#344=CYLINDRICAL_SURFACE('',#343,1.95E0);
#346=ORIENTED_EDGE('',*,*,#345,.T.);
#347=ORIENTED_EDGE('',*,*,#333,.F.);
#348=ORIENTED_EDGE('',*,*,#308,.T.);
#349=ORIENTED_EDGE('',*,*,#330,.T.);
#350=EDGE_LOOP('',(#346,#347,#348,#349));
#351=FACE_OUTER_BOUND('',#350,.F.);
#352=ADVANCED_FACE('',(#351),#344,.F.);
#353=CARTESIAN_POINT('',(2.028E0,-2.028E0,-1.E0));
#354=DIRECTION('',(0.E0,0.E0,1.E0));
#355=DIRECTION('',(0.E0,1.E0,0.E0));
#356=AXIS2_PLACEMENT_3D('',#353,#354,#355);
#357=PLANE('',#356);
#358=ORIENTED_EDGE('',*,*,#345,.F.);
#359=ORIENTED_EDGE('',*,*,#335,.F.);
#360=EDGE_LOOP('',(#358,#359));
#361=FACE_OUTER_BOUND('',#360,.F.);
#363=ORIENTED_EDGE('',*,*,#362,.F.);
#365=ORIENTED_EDGE('',*,*,#364,.F.);
#366=EDGE_LOOP('',(#363,#365));
#367=FACE_BOUND('',#366,.F.);
#368=ADVANCED_FACE('',(#361,#367),#357,.T.);
#369=CARTESIAN_POINT('',(0.E0,0.E0,-1.E0));
#370=DIRECTION('',(0.E0,0.E0,1.E0));
#371=DIRECTION('',(1.E0,0.E0,0.E0));
#372=AXIS2_PLACEMENT_3D('',#369,#370,#371);
#373=CYLINDRICAL_SURFACE('',#372,1.925E0);
#375=ORIENTED_EDGE('',*,*,#374,.F.);
#377=ORIENTED_EDGE('',*,*,#376,.T.);
#379=ORIENTED_EDGE('',*,*,#378,.T.);
#380=ORIENTED_EDGE('',*,*,#362,.T.);
#381=EDGE_LOOP('',(#375,#377,#379,#380));
#382=FACE_OUTER_BOUND('',#381,.F.);
#383=ADVANCED_FACE('',(#382),#373,.T.);
#384=CARTESIAN_POINT('',(0.E0,0.E0,-1.E0));
#385=DIRECTION('',(0.E0,0.E0,1.E0));
#386=DIRECTION('',(1.E0,0.E0,0.E0));
#387=AXIS2_PLACEMENT_3D('',#384,#385,#386);
#388=CYLINDRICAL_SURFACE('',#387,1.925E0);
#389=ORIENTED_EDGE('',*,*,#364,.T.);
#390=ORIENTED_EDGE('',*,*,#378,.F.);
#392=ORIENTED_EDGE('',*,*,#391,.T.);
#393=ORIENTED_EDGE('',*,*,#374,.T.);
#394=EDGE_LOOP('',(#389,#390,#392,#393));
#395=FACE_OUTER_BOUND('',#394,.F.);
#396=ADVANCED_FACE('',(#395),#388,.T.);
#397=CARTESIAN_POINT('',(-2.08E0,2.082084014203E0,0.E0));
#398=DIRECTION('',(0.E0,0.E0,-1.E0));
#399=DIRECTION('',(1.E0,0.E0,0.E0));
#400=AXIS2_PLACEMENT_3D('',#397,#398,#399);
#401=PLANE('',#400);
#402=ORIENTED_EDGE('',*,*,#391,.F.);
#403=ORIENTED_EDGE('',*,*,#376,.F.);
#404=EDGE_LOOP('',(#402,#403));
#405=FACE_OUTER_BOUND('',#404,.F.);
#406=ADVANCED_FACE('',(#405),#401,.F.);
#407=CLOSED_SHELL('',(#196,#213,#226,#242,#257,#268,#280,#295,#312,#324,#339,
#352,#368,#383,#396,#406));
#408=MANIFOLD_SOLID_BREP('',#407);
#410=DIMENSIONAL_EXPONENTS(0.E0,0.E0,0.E0,0.E0,0.E0,0.E0,0.E0);
#412=PLANE_ANGLE_MEASURE_WITH_UNIT(PLANE_ANGLE_MEASURE(1.745329251994E-2),#411);
#413=(CONVERSION_BASED_UNIT('DEGREE',#412)NAMED_UNIT(*)PLANE_ANGLE_UNIT());
#415=UNCERTAINTY_MEASURE_WITH_UNIT(LENGTH_MEASURE(2.172469195996E-3),#409,
'closure',
'Maximum model space distance between geometric entities at asserted connectivities');
#416=(GEOMETRIC_REPRESENTATION_CONTEXT(3)GLOBAL_UNCERTAINTY_ASSIGNED_CONTEXT((
#415))GLOBAL_UNIT_ASSIGNED_CONTEXT((#409,#413,#414))REPRESENTATION_CONTEXT
('ID1','3'));
#417=CARTESIAN_POINT('',(0.E0,0.E0,0.E0));
#418=DIRECTION('',(0.E0,0.E0,1.E0));
#419=DIRECTION('',(1.E0,0.E0,0.E0));
#422=APPLICATION_CONTEXT(
'CONFIGURATION CONTROLLED 3D DESIGNS OF MECHANICAL PARTS AND ASSEMBLIES');
#423=APPLICATION_PROTOCOL_DEFINITION('international standard',
'config_control_design',1994,#422);
#424=DESIGN_CONTEXT('',#422,'design');
#425=MECHANICAL_CONTEXT('',#422,'mechanical');
#426=PRODUCT('FL-M04_STEP-203','FL-M04_STEP-203','NOT SPECIFIED',(#425));
#427=PRODUCT_DEFINITION_FORMATION_WITH_SPECIFIED_SOURCE('1','LAST_VERSION',#426,
.MADE.);
#436=CARTESIAN_POINT('',(0.E0,0.E0,0.E0));
#437=DIRECTION('',(0.E0,0.E0,1.E0));
#438=DIRECTION('',(1.E0,0.E0,0.E0));
#439=AXIS2_PLACEMENT_3D('',#436,#437,#438);
#440=ITEM_DEFINED_TRANSFORMATION('','',#420,#439);
#441=CARTESIAN_POINT('',(0.E0,0.E0,0.E0));
#442=DIRECTION('',(0.E0,0.E0,1.E0));
#443=DIRECTION('',(1.E0,0.E0,0.E0));
#445=(REPRESENTATION_RELATIONSHIP('','',#421,#433)REPRESENTATION_RELATIONSHIP_WITH_TRANSFORMATION(#440)SHAPE_REPRESENTATION_RELATIONSHIP());
#446=CONTEXT_DEPENDENT_SHAPE_REPRESENTATION(#445,#435);
#448=DIMENSIONAL_EXPONENTS(0.E0,0.E0,0.E0,0.E0,0.E0,0.E0,0.E0);
#450=PLANE_ANGLE_MEASURE_WITH_UNIT(PLANE_ANGLE_MEASURE(1.745329251994E-2),#449);
#451=(CONVERSION_BASED_UNIT('DEGREE',#450)NAMED_UNIT(*)PLANE_ANGLE_UNIT());
#453=UNCERTAINTY_MEASURE_WITH_UNIT(LENGTH_MEASURE(2.172469195996E-3),#447,
'closure',
'Maximum model space distance between geometric entities at asserted connectivities');
#454=(GEOMETRIC_REPRESENTATION_CONTEXT(3)GLOBAL_UNCERTAINTY_ASSIGNED_CONTEXT((
#453))GLOBAL_UNIT_ASSIGNED_CONTEXT((#447,#451,#452))REPRESENTATION_CONTEXT
('ID2','3'));
#455=CARTESIAN_POINT('',(0.E0,0.E0,0.E0));
#456=DIRECTION('',(0.E0,0.E0,1.E0));
#457=DIRECTION('',(1.E0,0.E0,0.E0));
#459=MECHANICAL_CONTEXT('',#422,'mechanical');
#460=PRODUCT('800252_ASM','800252_ASM','NOT SPECIFIED',(#459));
#461=PRODUCT_DEFINITION_FORMATION_WITH_SPECIFIED_SOURCE('1','LAST_VERSION',#460,
.MADE.);
#468=CARTESIAN_POINT('',(0.E0,0.E0,0.E0));
#469=DIRECTION('',(0.E0,0.E0,1.E0));
#470=DIRECTION('',(1.E0,0.E0,0.E0));
#471=AXIS2_PLACEMENT_3D('',#468,#469,#470);
#472=ITEM_DEFINED_TRANSFORMATION('','',#444,#471);
#473=(REPRESENTATION_RELATIONSHIP('','',#433,#465)REPRESENTATION_RELATIONSHIP_WITH_TRANSFORMATION(#472)SHAPE_REPRESENTATION_RELATIONSHIP());
#474=CONTEXT_DEPENDENT_SHAPE_REPRESENTATION(#473,#467);
#476=DIMENSIONAL_EXPONENTS(0.E0,0.E0,0.E0,0.E0,0.E0,0.E0,0.E0);
#478=PLANE_ANGLE_MEASURE_WITH_UNIT(PLANE_ANGLE_MEASURE(1.745329251994E-2),#477);
#479=(CONVERSION_BASED_UNIT('DEGREE',#478)NAMED_UNIT(*)PLANE_ANGLE_UNIT());
#481=UNCERTAINTY_MEASURE_WITH_UNIT(LENGTH_MEASURE(2.172469195996E-3),#475,
'closure',
'Maximum model space distance between geometric entities at asserted connectivities');
#482=(GEOMETRIC_REPRESENTATION_CONTEXT(3)GLOBAL_UNCERTAINTY_ASSIGNED_CONTEXT((
#481))GLOBAL_UNIT_ASSIGNED_CONTEXT((#475,#479,#480))REPRESENTATION_CONTEXT
('ID3','3'));
#483=CARTESIAN_POINT('',(0.E0,0.E0,0.E0));
#484=DIRECTION('',(0.E0,0.E0,1.E0));
#485=DIRECTION('',(1.E0,0.E0,0.E0));
#487=DESIGN_CONTEXT('',#422,'design');
#488=MECHANICAL_CONTEXT('',#422,'mechanical');
#489=PRODUCT('194372_ASM','194372_ASM','NOT SPECIFIED',(#488));
#490=PRODUCT_DEFINITION_FORMATION_WITH_SPECIFIED_SOURCE('1','LAST_VERSION',#489,
.MADE.);
#492=PRODUCT_CATEGORY('part','');
#493=PRODUCT_RELATED_PRODUCT_CATEGORY('assembly','',(#460,#489));
#494=PRODUCT_CATEGORY_RELATIONSHIP('','',#492,#493);
#495=PRODUCT_CATEGORY('part','');
#496=PRODUCT_RELATED_PRODUCT_CATEGORY('detail','',(#426));
#497=PRODUCT_CATEGORY_RELATIONSHIP('','',#495,#496);
#498=SECURITY_CLASSIFICATION_LEVEL('unclassified');
#499=SECURITY_CLASSIFICATION('','',#498);
#500=CC_DESIGN_SECURITY_CLASSIFICATION(#499,(#427,#461,#490,#434,#466));
#501=APPROVAL_STATUS('approved');
#502=APPROVAL(#501,'');
#503=CC_DESIGN_APPROVAL(#502,(#499,#427,#461,#490,#428,#462,#491));
#504=CALENDAR_DATE(116,24,3);
#505=COORDINATED_UNIVERSAL_TIME_OFFSET(5,0,.BEHIND.);
#506=LOCAL_TIME(7,13,1.6E1,#505);
#507=DATE_AND_TIME(#504,#506);
#508=APPROVAL_DATE_TIME(#507,#502);
#509=DATE_TIME_ROLE('creation_date');
#510=CC_DESIGN_DATE_AND_TIME_ASSIGNMENT(#507,#509,(#428,#462,#491));
#511=DATE_TIME_ROLE('classification_date');
#512=CC_DESIGN_DATE_AND_TIME_ASSIGNMENT(#507,#511,(#499));
#513=PERSON('UNSPECIFIED','UNSPECIFIED',$,$,$,$);
#514=ORGANIZATION('UNSPECIFIED','UNSPECIFIED','UNSPECIFIED');
#515=PERSON_AND_ORGANIZATION(#513,#514);
#516=APPROVAL_ROLE('approver');
#517=APPROVAL_PERSON_ORGANIZATION(#515,#502,#516);
#518=PERSON_AND_ORGANIZATION_ROLE('creator');
#519=CC_DESIGN_PERSON_AND_ORGANIZATION_ASSIGNMENT(#515,#518,(#427,#461,#490,
#428,#462,#491));
#520=PERSON_AND_ORGANIZATION_ROLE('design_supplier');
#521=CC_DESIGN_PERSON_AND_ORGANIZATION_ASSIGNMENT(#515,#520,(#427,#461,#490));
#522=PERSON_AND_ORGANIZATION_ROLE('classification_officer');
#523=CC_DESIGN_PERSON_AND_ORGANIZATION_ASSIGNMENT(#515,#522,(#499));
#524=PERSON_AND_ORGANIZATION_ROLE('design_owner');
#525=CC_DESIGN_PERSON_AND_ORGANIZATION_ASSIGNMENT(#515,#524,(#460,#489,#426));
#9=CIRCLE('',#8,3.E0);
#14=CIRCLE('',#13,3.E0);
#19=CIRCLE('',#18,2.E0);
#24=CIRCLE('',#23,2.E0);
#33=CIRCLE('',#32,3.E0);
#38=CIRCLE('',#37,3.E0);
#43=CIRCLE('',#42,2.E0);
#48=CIRCLE('',#47,2.E0);
#57=CIRCLE('',#56,2.E0);
#62=CIRCLE('',#61,2.E0);
#75=CIRCLE('',#74,2.E0);
#80=CIRCLE('',#79,2.E0);
#85=CIRCLE('',#84,1.95E0);
#90=CIRCLE('',#89,1.95E0);
#107=CIRCLE('',#106,1.95E0);
#112=CIRCLE('',#111,1.95E0);
#117=CIRCLE('',#116,1.925E0);
#122=CIRCLE('',#121,1.925E0);
#135=CIRCLE('',#134,1.925E0);
#140=CIRCLE('',#139,1.925E0);
#186=EDGE_CURVE('',#174,#173,#9,.T.);
#188=EDGE_CURVE('',#162,#173,#4,.T.);
#190=EDGE_CURVE('',#162,#161,#33,.T.);
#192=EDGE_CURVE('',#161,#174,#28,.T.);
#203=EDGE_CURVE('',#173,#174,#14,.T.);
#207=EDGE_CURVE('',#170,#169,#19,.T.);
#209=EDGE_CURVE('',#169,#170,#24,.T.);
#220=EDGE_CURVE('',#161,#162,#38,.T.);
#236=EDGE_CURVE('',#178,#152,#43,.T.);
#238=EDGE_CURVE('',#152,#178,#48,.T.);
#248=EDGE_CURVE('',#149,#150,#57,.T.);
#250=EDGE_CURVE('',#178,#150,#52,.T.);
#253=EDGE_CURVE('',#152,#149,#66,.T.);
#264=EDGE_CURVE('',#150,#149,#62,.T.);
#286=EDGE_CURVE('',#166,#165,#80,.T.);
#288=EDGE_CURVE('',#170,#165,#70,.T.);
#291=EDGE_CURVE('',#169,#166,#94,.T.);
#301=EDGE_CURVE('',#165,#166,#75,.T.);
#306=EDGE_CURVE('',#156,#155,#85,.T.);
#308=EDGE_CURVE('',#155,#156,#90,.T.);
#330=EDGE_CURVE('',#156,#176,#98,.T.);
#333=EDGE_CURVE('',#155,#158,#102,.T.);
#335=EDGE_CURVE('',#158,#176,#112,.T.);
#345=EDGE_CURVE('',#176,#158,#107,.T.);
#362=EDGE_CURVE('',#146,#180,#117,.T.);
#364=EDGE_CURVE('',#180,#146,#122,.T.);
#374=EDGE_CURVE('',#143,#180,#126,.T.);
#376=EDGE_CURVE('',#143,#144,#140,.T.);
#378=EDGE_CURVE('',#144,#146,#130,.T.);
#391=EDGE_CURVE('',#144,#143,#135,.T.);
#409=(LENGTH_UNIT()NAMED_UNIT(*)SI_UNIT(.MILLI.,.METRE.));
#411=(NAMED_UNIT(*)PLANE_ANGLE_UNIT()SI_UNIT($,.RADIAN.));
#414=(NAMED_UNIT(*)SI_UNIT($,.STERADIAN.)SOLID_ANGLE_UNIT());
#420=AXIS2_PLACEMENT_3D('',#417,#418,#419);
#421=ADVANCED_BREP_SHAPE_REPRESENTATION('',(#420,#408),#416);
#428=PRODUCT_DEFINITION('design','',#427,#424);
#429=PRODUCT_DEFINITION_SHAPE('','SHAPE FOR FL-M04_STEP-203.',#428);
#430=SHAPE_DEFINITION_REPRESENTATION(#429,#421);
#431=SHAPE_DEFINITION_REPRESENTATION(#432,#433);
#432=PRODUCT_DEFINITION_SHAPE('','SHAPE FOR 800252_ASM.',#462);
#433=SHAPE_REPRESENTATION('',(#444,#439,#458),#454);
#434=NEXT_ASSEMBLY_USAGE_OCCURRENCE('0','Next assembly relationship',
'FL-M04_STEP-203',#462,#428,$);
#435=PRODUCT_DEFINITION_SHAPE('Placement #0',
'Placement of FL-M04_STEP-203 with respect to 800252_ASM',#434);
#444=AXIS2_PLACEMENT_3D('',#441,#442,#443);
#447=(LENGTH_UNIT()NAMED_UNIT(*)SI_UNIT(.MILLI.,.METRE.));
#449=(NAMED_UNIT(*)PLANE_ANGLE_UNIT()SI_UNIT($,.RADIAN.));
#452=(NAMED_UNIT(*)SI_UNIT($,.STERADIAN.)SOLID_ANGLE_UNIT());
#458=AXIS2_PLACEMENT_3D('',#455,#456,#457);
#462=PRODUCT_DEFINITION('design','',#461,#424);
#463=SHAPE_DEFINITION_REPRESENTATION(#464,#465);
#464=PRODUCT_DEFINITION_SHAPE('','SHAPE FOR 194372_ASM.',#491);
#465=SHAPE_REPRESENTATION('',(#471,#486),#482);
#466=NEXT_ASSEMBLY_USAGE_OCCURRENCE('1','Next assembly relationship','800252',
#491,#462,$);
#467=PRODUCT_DEFINITION_SHAPE('Placement #1',
'Placement of 800252_ASM with respect to 194372_ASM',#466);
#475=(LENGTH_UNIT()NAMED_UNIT(*)SI_UNIT(.MILLI.,.METRE.));
#477=(NAMED_UNIT(*)PLANE_ANGLE_UNIT()SI_UNIT($,.RADIAN.));
#480=(NAMED_UNIT(*)SI_UNIT($,.STERADIAN.)SOLID_ANGLE_UNIT());
#486=AXIS2_PLACEMENT_3D('',#483,#484,#485);
#491=PRODUCT_DEFINITION('design','',#490,#487);
ENDSEC;
END-ISO-10303-21;
