 PTC IGES file: 194198.igs                                              S      1
1H,,1H;,10H194198_ASM,10H194198.igs,27HCreo Parametric by PTC Inc.,     G      1
7H2016260,32,38,7,38,15,10H194198_ASM,1.,2,2HMM,32768,0.5,              G      2
15H20180808.130901,0.0168298,168.305,8Hpdmadmin,7HUnknown,10,0,         G      3
15H20180808.130901;                                                     G      4
     314       1       1       1       0       0       0       001000200D      1
     314       0       4       1       0                   COLOR       1D      2
     314       2       1       1       0       0       0       001000200D      3
     314       0       1       1       0                   COLOR       2D      4
     314       3       1       1       0       0       0       001000200D      5
     314       0       2       1       0                   COLOR       3D      6
     314       4       1       1       0       0       0       001000200D      7
     314       0       8       1       0                   COLOR       4D      8
     314       5       1       1       0       0       0       001000200D      9
     314       0       8       1       0                   COLOR       5D     10
     314       6       1       1       0       0       0       001000200D     11
     314       0       8       1       0                   COLOR       6D     12
     314       7       1       1       0       0       0       001000200D     13
     314       0       5       1       0                   COLOR       7D     14
     314       8       1       1       0       0       0       001000200D     15
     314       0       8       1       0                   COLOR       8D     16
     314       9       1       1       0       0       0       001000200D     17
     314       0       8       1       0                   COLOR       9D     18
     110      10       1       1  152282       0       0       001010000D     19
     110       0       8       1       0                    LINE       1D     20
     110      11       1       1  152282       0       0       001010000D     21
     110       0       8       1       0                    LINE       2D     22
     110      12       1       1  152282       0       0       001010000D     23
     110       0       8       1       0                    LINE       3D     24
     110      13       1       1  152282       0       0       001010000D     25
     110       0       8       1       0                    LINE       4D     26
     110      14       1       1  152282       0       0       001010000D     27
     110       0       8       1       0                    LINE       5D     28
     110      15       1       1  152282       0       0       001010000D     29
     110       0       8       1       0                    LINE       6D     30
     110      16       1       1  152282       0       0       001010000D     31
     110       0       8       1       0                    LINE       7D     32
     110      17       1       1  152282       0       0       001010000D     33
     110       0       8       1       0                    LINE       8D     34
     110      18       1       1  152282       0       0       001010000D     35
     110       0       8       1       0                    LINE       9D     36
     110      19       1       1  152282       0       0       001010000D     37
     110       0       8       1       0                    LINE      10D     38
     110      20       1       1  152282       0       0       001010000D     39
     110       0       8       1       0                    LINE      11D     40
     110      21       1       1  152282       0       0       001010000D     41
     110       0       8       1       0                    LINE      12D     42
     502      22       1       1  152282       0       0       001010000D     43
     502       0       8       3       1                  VERTEX       1D     44
     504      25       1       1  152282       0       0       000010001D     45
     504       0       8       3       1                    EDGE       1D     46
     128      28       1       1  152282       0       0       001010000D     47
     128       0       8       6       0                  SPLSRF       1D     48
     508      34       1       1  152282       0       0       001010000D     49
     508       0       0       1       1                EDGELOOP       1D     50
     510      35       1       1  152282       0       0       000010000D     51
     510       0       8       1       1                    FACE       1D     52
     128      36       1       1  152282       0       0       001010000D     53
     128       0       8       6       0                  SPLSRF       2D     54
     508      42       1       1  152282       0       0       001010000D     55
     508       0       0       1       1                EDGELOOP       2D     56
     510      43       1       1  152282       0       0       000010000D     57
     510       0       8       1       1                    FACE       2D     58
     128      44       1       1  152282       0       0       001010000D     59
     128       0       8       4       0                  SPLSRF       3D     60
     508      48       1       1  152282       0       0       001010000D     61
     508       0       0       1       1                EDGELOOP       3D     62
     510      49       1       1  152282       0       0       000010000D     63
     510       0       8       1       1                    FACE       3D     64
     128      50       1       1  152282       0       0       001010000D     65
     128       0       8       6       0                  SPLSRF       4D     66
     508      56       1       1  152282       0       0       001010000D     67
     508       0       0       1       1                EDGELOOP       4D     68
     510      57       1       1  152282       0       0       000010000D     69
     510       0       8       1       1                    FACE       4D     70
     128      58       1       1  152282       0       0       001010000D     71
     128       0       8       4       0                  SPLSRF       5D     72
     508      62       1       1  152282       0       0       001010000D     73
     508       0       0       1       1                EDGELOOP       5D     74
     510      63       1       1  152282       0       0       000010000D     75
     510       0       8       1       1                    FACE       5D     76
     128      64       1       1  152282       0       0       001010000D     77
     128       0       8       6       0                  SPLSRF       6D     78
     508      70       1       1  152282       0       0       001010000D     79
     508       0       0       1       1                EDGELOOP       6D     80
     510      71       1       1  152282       0       0       000010000D     81
     510       0       8       1       1                    FACE       6D     82
     514      72       1       1  152282       0       0       000010000D     83
     514       0       8       1       1                   SHELL       1D     84
     186      73       1       1       0       0       0       000000000D     85
     186       0       8       1       0                    MSBR       1D     86
     406      74       1       1       0       0       0       001000000D     87
     406       0       0       1      15                    PROP       1D     88
     402      75       1       1       0       0       0       000000300D     89
     402       0       0       2       7                   LAYER       1D     90
314,1.1D0,1.2D0,1D2;                                                   1P      1
314,4.1D1,2.61589D1,1.12848D1;                                         3P      2
314,5.04854D1,1.5455D0,1.5455D0;                                       5P      3
314,6.40777D1,6.40777D1,6.40777D1;                                     7P      4
314,6.69062D1,6.69903D1,6.55217D1;                                     9P      5
314,6.952D1,7.426D1,7.9D1;                                            11P      6
314,9.21569D1,7.05882D1,4.70588D1;                                    13P      7
314,1D2,1D2,5.3D1;                                                    15P      8
314,1D2,1D2,9.49D1;                                                   17P      9
110,-2.25D1,1.5D0,0D0,-2.25D1,-1.5D0,0D0;                             19P     10
110,-2.25D1,-1.5D0,0D0,2.25D1,-1.5D0,0D0;                             21P     11
110,2.25D1,-1.5D0,0D0,2.25D1,1.5D0,0D0;                               23P     12
110,2.25D1,1.5D0,0D0,-2.25D1,1.5D0,0D0;                               25P     13
110,-2.25D1,1.5D0,0D0,-2.25D1,1.5D0,1.6215D2;                         27P     14
110,2.25D1,1.5D0,0D0,2.25D1,1.5D0,1.6215D2;                           29P     15
110,2.25D1,-1.5D0,0D0,2.25D1,-1.5D0,1.6215D2;                         31P     16
110,-2.25D1,-1.5D0,0D0,-2.25D1,-1.5D0,1.6215D2;                       33P     17
110,-2.25D1,1.5D0,1.6215D2,-2.25D1,-1.5D0,1.6215D2;                   35P     18
110,2.25D1,1.5D0,1.6215D2,-2.25D1,1.5D0,1.6215D2;                     37P     19
110,2.25D1,-1.5D0,1.6215D2,2.25D1,1.5D0,1.6215D2;                     39P     20
110,-2.25D1,-1.5D0,1.6215D2,2.25D1,-1.5D0,1.6215D2;                   41P     21
502,8,-2.25D1,1.5D0,0D0,-2.25D1,-1.5D0,0D0,2.25D1,-1.5D0,0D0,         43P     22
2.25D1,1.5D0,0D0,-2.25D1,1.5D0,1.6215D2,-2.25D1,-1.5D0,1.6215D2,      43P     23
2.25D1,-1.5D0,1.6215D2,2.25D1,1.5D0,1.6215D2;                         43P     24
504,12,19,43,1,43,2,21,43,2,43,3,23,43,3,43,4,25,43,4,43,1,35,        45P     25
43,5,43,6,41,43,6,43,7,39,43,7,43,8,37,43,8,43,5,27,43,1,43,5,        45P     26
33,43,2,43,6,31,43,3,43,7,29,43,4,43,8;                               45P     27
128,1,1,1,1,0,0,1,0,0,-2.34D1,-2.34D1,2.34D1,2.34D1,                  47P     28
-1.701966176376D0,-1.701966176376D0,1.701966176376D0,                 47P     29
1.701966176376D0,1D0,1D0,1D0,1D0,-2.34D1,-1.701966176376D0,0D0,       47P     30
2.34D1,-1.701966176376D0,0D0,-2.34D1,1.701966176376D0,0D0,            47P     31
2.34D1,1.701966176376D0,0D0,-2.34D1,2.34D1,-1.701966176376D0,         47P     32
1.701966176376D0;                                                     47P     33
508,4,0,45,1,1,0,0,45,2,1,0,0,45,3,1,0,0,45,4,1,0;                    49P     34
510,47,1,0,49;                                                        51P     35
128,1,1,1,1,0,0,1,0,0,-2.019661763761D-1,-2.019661763761D-1,          53P     36
3.201966176376D0,3.201966176376D0,-3.243D0,-3.243D0,1.65393D2,        53P     37
1.65393D2,1D0,1D0,1D0,1D0,-2.25D1,1.701966176376D0,-3.243D0,          53P     38
-2.25D1,-1.701966176376D0,-3.243D0,-2.25D1,1.701966176376D0,          53P     39
1.65393D2,-2.25D1,-1.701966176376D0,1.65393D2,                        53P     40
-2.019661763761D-1,3.201966176376D0,-3.243D0,1.65393D2;               53P     41
508,4,0,45,1,0,0,0,45,9,1,0,0,45,5,1,0,0,45,10,0,0;                   55P     42
510,53,1,0,55;                                                        57P     43
128,1,1,1,1,0,0,1,0,0,-9D-1,-9D-1,4.59D1,4.59D1,-3.243D0,             59P     44
-3.243D0,1.65393D2,1.65393D2,1D0,1D0,1D0,1D0,2.34D1,1.5D0,            59P     45
-3.243D0,-2.34D1,1.5D0,-3.243D0,2.34D1,1.5D0,1.65393D2,-2.34D1,       59P     46
1.5D0,1.65393D2,-9D-1,4.59D1,-3.243D0,1.65393D2;                      59P     47
508,4,0,45,4,0,0,0,45,12,1,0,0,45,8,1,0,0,45,9,0,0;                   61P     48
510,59,1,0,61;                                                        63P     49
128,1,1,1,1,0,0,1,0,0,-2.019661763761D-1,-2.019661763761D-1,          65P     50
3.201966176376D0,3.201966176376D0,-3.243D0,-3.243D0,1.65393D2,        65P     51
1.65393D2,1D0,1D0,1D0,1D0,2.25D1,-1.701966176376D0,-3.243D0,          65P     52
2.25D1,1.701966176376D0,-3.243D0,2.25D1,-1.701966176376D0,            65P     53
1.65393D2,2.25D1,1.701966176376D0,1.65393D2,-2.019661763761D-1,       65P     54
3.201966176376D0,-3.243D0,1.65393D2;                                  65P     55
508,4,0,45,3,0,0,0,45,11,1,0,0,45,7,1,0,0,45,12,0,0;                  67P     56
510,65,1,0,67;                                                        69P     57
128,1,1,1,1,0,0,1,0,0,-9D-1,-9D-1,4.59D1,4.59D1,-3.243D0,             71P     58
-3.243D0,1.65393D2,1.65393D2,1D0,1D0,1D0,1D0,-2.34D1,-1.5D0,          71P     59
-3.243D0,2.34D1,-1.5D0,-3.243D0,-2.34D1,-1.5D0,1.65393D2,2.34D1,      71P     60
-1.5D0,1.65393D2,-9D-1,4.59D1,-3.243D0,1.65393D2;                     71P     61
508,4,0,45,2,0,0,0,45,10,1,0,0,45,6,1,0,0,45,11,0,0;                  73P     62
510,71,1,0,73;                                                        75P     63
128,1,1,1,1,0,0,1,0,0,-2.34D1,-2.34D1,2.34D1,2.34D1,                  77P     64
-1.701966176376D0,-1.701966176376D0,1.701966176376D0,                 77P     65
1.701966176376D0,1D0,1D0,1D0,1D0,-2.34D1,-1.701966176376D0,           77P     66
1.6215D2,2.34D1,-1.701966176376D0,1.6215D2,-2.34D1,                   77P     67
1.701966176376D0,1.6215D2,2.34D1,1.701966176376D0,1.6215D2,           77P     68
-2.34D1,2.34D1,-1.701966176376D0,1.701966176376D0;                    77P     69
508,4,0,45,5,0,0,0,45,8,0,0,0,45,7,0,0,0,45,6,0,0;                    79P     70
510,77,1,0,79;                                                        81P     71
514,6,51,0,57,1,63,1,69,1,75,1,81,1;                                  83P     72
186,83,1,0;                                                           85P     73
406,1,6H152282;                                                       87P     74
402,34,19,21,23,25,27,29,31,33,35,37,39,41,43,45,47,49,51,53,55,      89P     75
57,59,61,63,65,67,69,71,73,75,77,79,81,83,85,0,1,87;                  89P     76
S      1G      4D     90P     76                                        T      1
