ISO-10303-21;
HEADER;
FILE_DESCRIPTION((''),'2;1');
FILE_NAME('194164_ASM','2016-03-14T',('pdmadmin'),(''),
'PRO/ENGINEER BY PARAMETRIC TECHNOLOGY CORPORATION, 2013230',
'PRO/ENGINEER BY PARAMETRIC TECHNOLOGY CORPORATION, 2013230','');
FILE_SCHEMA(('CONFIG_CONTROL_DESIGN'));
ENDSEC;
DATA;
#1=DIRECTION('',(0.E0,-1.E0,0.E0));
#2=VECTOR('',#1,3.872983346208E0);
#3=CARTESIAN_POINT('',(-3.5E0,1.936491673104E0,-2.71E1));
#4=LINE('',#3,#2);
#5=CARTESIAN_POINT('',(0.E0,0.E0,-2.71E1));
#6=DIRECTION('',(0.E0,0.E0,1.E0));
#7=DIRECTION('',(-8.75E-1,-4.841229182759E-1,0.E0));
#8=AXIS2_PLACEMENT_3D('',#5,#6,#7);
#10=CARTESIAN_POINT('',(0.E0,0.E0,-2.71E1));
#11=DIRECTION('',(0.E0,0.E0,1.E0));
#12=DIRECTION('',(8.75E-1,4.841229182759E-1,0.E0));
#13=AXIS2_PLACEMENT_3D('',#10,#11,#12);
#15=CARTESIAN_POINT('',(0.E0,0.E0,-2.71E1));
#16=DIRECTION('',(0.E0,0.E0,-1.E0));
#17=DIRECTION('',(1.E0,0.E0,0.E0));
#18=AXIS2_PLACEMENT_3D('',#15,#16,#17);
#20=CARTESIAN_POINT('',(0.E0,0.E0,-2.71E1));
#21=DIRECTION('',(0.E0,0.E0,-1.E0));
#22=DIRECTION('',(-1.E0,0.E0,0.E0));
#23=AXIS2_PLACEMENT_3D('',#20,#21,#22);
#25=DIRECTION('',(0.E0,-1.E0,0.E0));
#26=VECTOR('',#25,3.872983346208E0);
#27=CARTESIAN_POINT('',(-3.5E0,1.936491673104E0,-2.26E1));
#28=LINE('',#27,#26);
#29=DIRECTION('',(0.E0,0.E0,-1.E0));
#30=VECTOR('',#29,4.5E0);
#31=CARTESIAN_POINT('',(-3.5E0,1.936491673104E0,-2.26E1));
#32=LINE('',#31,#30);
#33=DIRECTION('',(0.E0,0.E0,1.E0));
#34=VECTOR('',#33,4.5E0);
#35=CARTESIAN_POINT('',(3.5E0,1.936491673104E0,-2.71E1));
#36=LINE('',#35,#34);
#37=DIRECTION('',(0.E0,0.E0,-1.E0));
#38=VECTOR('',#37,1.55E1);
#39=CARTESIAN_POINT('',(-4.E0,0.E0,-7.1E0));
#40=LINE('',#39,#38);
#41=CARTESIAN_POINT('',(0.E0,0.E0,-2.26E1));
#42=DIRECTION('',(0.E0,0.E0,1.E0));
#43=DIRECTION('',(-8.75E-1,4.841229182759E-1,0.E0));
#44=AXIS2_PLACEMENT_3D('',#41,#42,#43);
#46=CARTESIAN_POINT('',(0.E0,0.E0,-2.26E1));
#47=DIRECTION('',(0.E0,0.E0,1.E0));
#48=DIRECTION('',(-1.E0,0.E0,0.E0));
#49=AXIS2_PLACEMENT_3D('',#46,#47,#48);
#51=DIRECTION('',(0.E0,0.E0,-1.E0));
#52=VECTOR('',#51,1.55E1);
#53=CARTESIAN_POINT('',(4.E0,0.E0,-7.1E0));
#54=LINE('',#53,#52);
#55=DIRECTION('',(0.E0,0.E0,-1.E0));
#56=VECTOR('',#55,4.5E0);
#57=CARTESIAN_POINT('',(3.5E0,-1.936491673104E0,-2.26E1));
#58=LINE('',#57,#56);
#59=DIRECTION('',(0.E0,0.E0,1.E0));
#60=VECTOR('',#59,4.5E0);
#61=CARTESIAN_POINT('',(-3.5E0,-1.936491673104E0,-2.71E1));
#62=LINE('',#61,#60);
#63=CARTESIAN_POINT('',(0.E0,0.E0,-7.1E0));
#64=DIRECTION('',(0.E0,0.E0,-1.E0));
#65=DIRECTION('',(1.E0,0.E0,0.E0));
#66=AXIS2_PLACEMENT_3D('',#63,#64,#65);
#68=CARTESIAN_POINT('',(0.E0,0.E0,-7.1E0));
#69=DIRECTION('',(0.E0,0.E0,-1.E0));
#70=DIRECTION('',(-1.E0,0.E0,0.E0));
#71=AXIS2_PLACEMENT_3D('',#68,#69,#70);
#73=CARTESIAN_POINT('',(0.E0,0.E0,-7.1E0));
#74=DIRECTION('',(0.E0,0.E0,1.E0));
#75=DIRECTION('',(1.E0,0.E0,0.E0));
#76=AXIS2_PLACEMENT_3D('',#73,#74,#75);
#78=CARTESIAN_POINT('',(0.E0,0.E0,-7.1E0));
#79=DIRECTION('',(0.E0,0.E0,1.E0));
#80=DIRECTION('',(-1.E0,0.E0,0.E0));
#81=AXIS2_PLACEMENT_3D('',#78,#79,#80);
#83=DIRECTION('',(0.E0,0.E0,-1.E0));
#84=VECTOR('',#83,7.1E0);
#85=CARTESIAN_POINT('',(-3.575E0,0.E0,0.E0));
#86=LINE('',#85,#84);
#87=DIRECTION('',(0.E0,0.E0,-1.E0));
#88=VECTOR('',#87,7.1E0);
#89=CARTESIAN_POINT('',(3.575E0,0.E0,0.E0));
#90=LINE('',#89,#88);
#91=CARTESIAN_POINT('',(0.E0,0.E0,0.E0));
#92=DIRECTION('',(0.E0,0.E0,-1.E0));
#93=DIRECTION('',(1.E0,0.E0,0.E0));
#94=AXIS2_PLACEMENT_3D('',#91,#92,#93);
#96=CARTESIAN_POINT('',(0.E0,0.E0,0.E0));
#97=DIRECTION('',(0.E0,0.E0,-1.E0));
#98=DIRECTION('',(-1.E0,0.E0,0.E0));
#99=AXIS2_PLACEMENT_3D('',#96,#97,#98);
#101=CARTESIAN_POINT('',(0.E0,0.E0,-2.26E1));
#102=DIRECTION('',(0.E0,0.E0,1.E0));
#103=DIRECTION('',(1.E0,0.E0,0.E0));
#104=AXIS2_PLACEMENT_3D('',#101,#102,#103);
#106=DIRECTION('',(0.E0,-1.E0,0.E0));
#107=VECTOR('',#106,3.872983346208E0);
#108=CARTESIAN_POINT('',(3.5E0,1.936491673104E0,-2.26E1));
#109=LINE('',#108,#107);
#110=CARTESIAN_POINT('',(0.E0,0.E0,-2.26E1));
#111=DIRECTION('',(0.E0,0.E0,1.E0));
#112=DIRECTION('',(8.75E-1,-4.841229182759E-1,0.E0));
#113=AXIS2_PLACEMENT_3D('',#110,#111,#112);
#115=DIRECTION('',(0.E0,-1.E0,0.E0));
#116=VECTOR('',#115,3.872983346208E0);
#117=CARTESIAN_POINT('',(3.5E0,1.936491673104E0,-2.71E1));
#118=LINE('',#117,#116);
#119=CARTESIAN_POINT('',(0.E0,0.E0,-2.11E1));
#120=DIRECTION('',(0.E0,0.E0,-1.E0));
#121=DIRECTION('',(1.E0,0.E0,0.E0));
#122=AXIS2_PLACEMENT_3D('',#119,#120,#121);
#124=DIRECTION('',(0.E0,0.E0,-1.E0));
#125=VECTOR('',#124,6.E0);
#126=CARTESIAN_POINT('',(-1.65E0,0.E0,-2.11E1));
#127=LINE('',#126,#125);
#128=CARTESIAN_POINT('',(0.E0,0.E0,-2.11E1));
#129=DIRECTION('',(0.E0,0.E0,1.E0));
#130=DIRECTION('',(1.E0,0.E0,0.E0));
#131=AXIS2_PLACEMENT_3D('',#128,#129,#130);
#133=DIRECTION('',(0.E0,0.E0,-1.E0));
#134=VECTOR('',#133,6.E0);
#135=CARTESIAN_POINT('',(1.65E0,0.E0,-2.11E1));
#136=LINE('',#135,#134);
#137=DIRECTION('',(8.571673007021E-1,0.E0,-5.150380749101E-1));
#138=VECTOR('',#137,1.924945105405E0);
#139=CARTESIAN_POINT('',(0.E0,0.E0,-2.010857997860E1));
#140=LINE('',#139,#138);
#141=DIRECTION('',(-8.571673007021E-1,0.E0,-5.150380749101E-1));
#142=VECTOR('',#141,1.924945105405E0);
#143=CARTESIAN_POINT('',(0.E0,0.E0,-2.010857997860E1));
#144=LINE('',#143,#142);
#145=CARTESIAN_POINT('',(-3.5E0,1.936491673104E0,-2.71E1));
#146=CARTESIAN_POINT('',(-3.5E0,-1.936491673104E0,-2.71E1));
#147=VERTEX_POINT('',#145);
#148=VERTEX_POINT('',#146);
#149=CARTESIAN_POINT('',(3.5E0,-1.936491673104E0,-2.71E1));
#150=VERTEX_POINT('',#149);
#151=CARTESIAN_POINT('',(3.5E0,1.936491673104E0,-2.71E1));
#152=VERTEX_POINT('',#151);
#153=CARTESIAN_POINT('',(-3.5E0,1.936491673104E0,-2.26E1));
#154=VERTEX_POINT('',#153);
#155=CARTESIAN_POINT('',(-3.5E0,-1.936491673104E0,-2.26E1));
#156=VERTEX_POINT('',#155);
#157=CARTESIAN_POINT('',(-4.E0,0.E0,-2.26E1));
#158=VERTEX_POINT('',#157);
#159=CARTESIAN_POINT('',(3.5E0,1.936491673104E0,-2.26E1));
#160=VERTEX_POINT('',#159);
#161=CARTESIAN_POINT('',(4.E0,0.E0,-2.26E1));
#162=VERTEX_POINT('',#161);
#163=CARTESIAN_POINT('',(4.E0,0.E0,-7.1E0));
#164=VERTEX_POINT('',#163);
#165=CARTESIAN_POINT('',(-4.E0,0.E0,-7.1E0));
#166=VERTEX_POINT('',#165);
#167=CARTESIAN_POINT('',(3.5E0,-1.936491673104E0,-2.26E1));
#168=VERTEX_POINT('',#167);
#169=CARTESIAN_POINT('',(3.575E0,0.E0,-7.1E0));
#170=CARTESIAN_POINT('',(-3.575E0,0.E0,-7.1E0));
#171=VERTEX_POINT('',#169);
#172=VERTEX_POINT('',#170);
#173=CARTESIAN_POINT('',(-3.575E0,0.E0,0.E0));
#174=VERTEX_POINT('',#173);
#175=CARTESIAN_POINT('',(3.575E0,0.E0,0.E0));
#176=VERTEX_POINT('',#175);
#177=CARTESIAN_POINT('',(0.E0,0.E0,-2.010857997860E1));
#178=CARTESIAN_POINT('',(1.65E0,0.E0,-2.11E1));
#179=VERTEX_POINT('',#177);
#180=VERTEX_POINT('',#178);
#181=CARTESIAN_POINT('',(-1.65E0,0.E0,-2.11E1));
#182=VERTEX_POINT('',#181);
#183=CARTESIAN_POINT('',(1.65E0,0.E0,-2.71E1));
#184=CARTESIAN_POINT('',(-1.65E0,0.E0,-2.71E1));
#185=VERTEX_POINT('',#183);
#186=VERTEX_POINT('',#184);
#187=CARTESIAN_POINT('',(0.E0,0.E0,-2.71E1));
#188=DIRECTION('',(0.E0,0.E0,-1.E0));
#189=DIRECTION('',(1.E0,0.E0,0.E0));
#190=AXIS2_PLACEMENT_3D('',#187,#188,#189);
#191=PLANE('',#190);
#193=ORIENTED_EDGE('',*,*,#192,.T.);
#195=ORIENTED_EDGE('',*,*,#194,.T.);
#197=ORIENTED_EDGE('',*,*,#196,.F.);
#199=ORIENTED_EDGE('',*,*,#198,.T.);
#200=EDGE_LOOP('',(#193,#195,#197,#199));
#201=FACE_OUTER_BOUND('',#200,.F.);
#203=ORIENTED_EDGE('',*,*,#202,.T.);
#205=ORIENTED_EDGE('',*,*,#204,.T.);
#206=EDGE_LOOP('',(#203,#205));
#207=FACE_BOUND('',#206,.F.);
#208=ADVANCED_FACE('',(#201,#207),#191,.T.);
#209=CARTESIAN_POINT('',(-3.5E0,-3.671E0,-2.26E1));
#210=DIRECTION('',(1.E0,0.E0,0.E0));
#211=DIRECTION('',(0.E0,0.E0,-1.E0));
#212=AXIS2_PLACEMENT_3D('',#209,#210,#211);
#213=PLANE('',#212);
#214=ORIENTED_EDGE('',*,*,#192,.F.);
#216=ORIENTED_EDGE('',*,*,#215,.F.);
#218=ORIENTED_EDGE('',*,*,#217,.T.);
#220=ORIENTED_EDGE('',*,*,#219,.F.);
#221=EDGE_LOOP('',(#214,#216,#218,#220));
#222=FACE_OUTER_BOUND('',#221,.F.);
#223=ADVANCED_FACE('',(#222),#213,.F.);
#224=CARTESIAN_POINT('',(0.E0,0.E0,1.355E0));
#225=DIRECTION('',(0.E0,0.E0,-1.E0));
#226=DIRECTION('',(1.E0,0.E0,0.E0));
#227=AXIS2_PLACEMENT_3D('',#224,#225,#226);
#228=CYLINDRICAL_SURFACE('',#227,4.E0);
#230=ORIENTED_EDGE('',*,*,#229,.F.);
#231=ORIENTED_EDGE('',*,*,#215,.T.);
#232=ORIENTED_EDGE('',*,*,#198,.F.);
#234=ORIENTED_EDGE('',*,*,#233,.T.);
#236=ORIENTED_EDGE('',*,*,#235,.F.);
#238=ORIENTED_EDGE('',*,*,#237,.F.);
#240=ORIENTED_EDGE('',*,*,#239,.F.);
#242=ORIENTED_EDGE('',*,*,#241,.T.);
#243=EDGE_LOOP('',(#230,#231,#232,#234,#236,#238,#240,#242));
#244=FACE_OUTER_BOUND('',#243,.F.);
#245=ADVANCED_FACE('',(#244),#228,.T.);
#246=CARTESIAN_POINT('',(-4.E0,-3.671E0,-2.26E1));
#247=DIRECTION('',(0.E0,0.E0,1.E0));
#248=DIRECTION('',(1.E0,0.E0,0.E0));
#249=AXIS2_PLACEMENT_3D('',#246,#247,#248);
#250=PLANE('',#249);
#251=ORIENTED_EDGE('',*,*,#229,.T.);
#253=ORIENTED_EDGE('',*,*,#252,.T.);
#254=ORIENTED_EDGE('',*,*,#217,.F.);
#255=EDGE_LOOP('',(#251,#253,#254));
#256=FACE_OUTER_BOUND('',#255,.F.);
#257=ADVANCED_FACE('',(#256),#250,.F.);
#258=CARTESIAN_POINT('',(0.E0,0.E0,1.355E0));
#259=DIRECTION('',(0.E0,0.E0,-1.E0));
#260=DIRECTION('',(1.E0,0.E0,0.E0));
#261=AXIS2_PLACEMENT_3D('',#258,#259,#260);
#262=CYLINDRICAL_SURFACE('',#261,4.E0);
#263=ORIENTED_EDGE('',*,*,#252,.F.);
#264=ORIENTED_EDGE('',*,*,#241,.F.);
#266=ORIENTED_EDGE('',*,*,#265,.F.);
#267=ORIENTED_EDGE('',*,*,#237,.T.);
#269=ORIENTED_EDGE('',*,*,#268,.F.);
#271=ORIENTED_EDGE('',*,*,#270,.T.);
#272=ORIENTED_EDGE('',*,*,#194,.F.);
#273=ORIENTED_EDGE('',*,*,#219,.T.);
#274=EDGE_LOOP('',(#263,#264,#266,#267,#269,#271,#272,#273));
#275=FACE_OUTER_BOUND('',#274,.F.);
#276=ADVANCED_FACE('',(#275),#262,.T.);
#277=CARTESIAN_POINT('',(0.E0,0.E0,-7.1E0));
#278=DIRECTION('',(0.E0,0.E0,-1.E0));
#279=DIRECTION('',(1.E0,0.E0,0.E0));
#280=AXIS2_PLACEMENT_3D('',#277,#278,#279);
#281=PLANE('',#280);
#282=ORIENTED_EDGE('',*,*,#265,.T.);
#283=ORIENTED_EDGE('',*,*,#239,.T.);
#284=EDGE_LOOP('',(#282,#283));
#285=FACE_OUTER_BOUND('',#284,.F.);
#287=ORIENTED_EDGE('',*,*,#286,.T.);
#289=ORIENTED_EDGE('',*,*,#288,.T.);
#290=EDGE_LOOP('',(#287,#289));
#291=FACE_BOUND('',#290,.F.);
#292=ADVANCED_FACE('',(#285,#291),#281,.F.);
#293=CARTESIAN_POINT('',(0.E0,0.E0,1.355E0));
#294=DIRECTION('',(0.E0,0.E0,-1.E0));
#295=DIRECTION('',(1.E0,0.E0,0.E0));
#296=AXIS2_PLACEMENT_3D('',#293,#294,#295);
#297=CYLINDRICAL_SURFACE('',#296,3.575E0);
#299=ORIENTED_EDGE('',*,*,#298,.T.);
#300=ORIENTED_EDGE('',*,*,#286,.F.);
#302=ORIENTED_EDGE('',*,*,#301,.F.);
#304=ORIENTED_EDGE('',*,*,#303,.F.);
#305=EDGE_LOOP('',(#299,#300,#302,#304));
#306=FACE_OUTER_BOUND('',#305,.F.);
#307=ADVANCED_FACE('',(#306),#297,.T.);
#308=CARTESIAN_POINT('',(0.E0,0.E0,1.355E0));
#309=DIRECTION('',(0.E0,0.E0,-1.E0));
#310=DIRECTION('',(1.E0,0.E0,0.E0));
#311=AXIS2_PLACEMENT_3D('',#308,#309,#310);
#312=CYLINDRICAL_SURFACE('',#311,3.575E0);
#313=ORIENTED_EDGE('',*,*,#298,.F.);
#315=ORIENTED_EDGE('',*,*,#314,.F.);
#316=ORIENTED_EDGE('',*,*,#301,.T.);
#317=ORIENTED_EDGE('',*,*,#288,.F.);
#318=EDGE_LOOP('',(#313,#315,#316,#317));
#319=FACE_OUTER_BOUND('',#318,.F.);
#320=ADVANCED_FACE('',(#319),#312,.T.);
#321=CARTESIAN_POINT('',(0.E0,0.E0,0.E0));
#322=DIRECTION('',(0.E0,0.E0,-1.E0));
#323=DIRECTION('',(1.E0,0.E0,0.E0));
#324=AXIS2_PLACEMENT_3D('',#321,#322,#323);
#325=PLANE('',#324);
#326=ORIENTED_EDGE('',*,*,#314,.T.);
#327=ORIENTED_EDGE('',*,*,#303,.T.);
#328=EDGE_LOOP('',(#326,#327));
#329=FACE_OUTER_BOUND('',#328,.F.);
#330=ADVANCED_FACE('',(#329),#325,.F.);
#331=CARTESIAN_POINT('',(3.5E0,-3.671E0,-2.26E1));
#332=DIRECTION('',(0.E0,0.E0,1.E0));
#333=DIRECTION('',(1.E0,0.E0,0.E0));
#334=AXIS2_PLACEMENT_3D('',#331,#332,#333);
#335=PLANE('',#334);
#336=ORIENTED_EDGE('',*,*,#235,.T.);
#338=ORIENTED_EDGE('',*,*,#337,.T.);
#339=ORIENTED_EDGE('',*,*,#268,.T.);
#340=EDGE_LOOP('',(#336,#338,#339));
#341=FACE_OUTER_BOUND('',#340,.F.);
#342=ADVANCED_FACE('',(#341),#335,.F.);
#343=CARTESIAN_POINT('',(3.5E0,-3.671E0,-2.71E1));
#344=DIRECTION('',(-1.E0,0.E0,0.E0));
#345=DIRECTION('',(0.E0,0.E0,1.E0));
#346=AXIS2_PLACEMENT_3D('',#343,#344,#345);
#347=PLANE('',#346);
#348=ORIENTED_EDGE('',*,*,#196,.T.);
#349=ORIENTED_EDGE('',*,*,#270,.F.);
#350=ORIENTED_EDGE('',*,*,#337,.F.);
#351=ORIENTED_EDGE('',*,*,#233,.F.);
#352=EDGE_LOOP('',(#348,#349,#350,#351));
#353=FACE_OUTER_BOUND('',#352,.F.);
#354=ADVANCED_FACE('',(#353),#347,.F.);
#355=CARTESIAN_POINT('',(0.E0,0.E0,-1.975900897753E1));
#356=DIRECTION('',(0.E0,0.E0,-1.E0));
#357=DIRECTION('',(1.E0,0.E0,0.E0));
#358=AXIS2_PLACEMENT_3D('',#355,#356,#357);
#359=CYLINDRICAL_SURFACE('',#358,1.65E0);
#360=ORIENTED_EDGE('',*,*,#202,.F.);
#362=ORIENTED_EDGE('',*,*,#361,.F.);
#364=ORIENTED_EDGE('',*,*,#363,.T.);
#366=ORIENTED_EDGE('',*,*,#365,.T.);
#367=EDGE_LOOP('',(#360,#362,#364,#366));
#368=FACE_OUTER_BOUND('',#367,.F.);
#369=ADVANCED_FACE('',(#368),#359,.F.);
#370=CARTESIAN_POINT('',(0.E0,0.E0,-1.975900897753E1));
#371=DIRECTION('',(0.E0,0.E0,-1.E0));
#372=DIRECTION('',(1.E0,0.E0,0.E0));
#373=AXIS2_PLACEMENT_3D('',#370,#371,#372);
#374=CYLINDRICAL_SURFACE('',#373,1.65E0);
#375=ORIENTED_EDGE('',*,*,#204,.F.);
#376=ORIENTED_EDGE('',*,*,#365,.F.);
#378=ORIENTED_EDGE('',*,*,#377,.F.);
#379=ORIENTED_EDGE('',*,*,#361,.T.);
#380=EDGE_LOOP('',(#375,#376,#378,#379));
#381=FACE_OUTER_BOUND('',#380,.F.);
#382=ADVANCED_FACE('',(#381),#374,.F.);
#383=CARTESIAN_POINT('',(0.E0,0.E0,-2.061420418952E1));
#384=DIRECTION('',(0.E0,0.E0,-1.E0));
#385=DIRECTION('',(1.E0,0.E0,0.E0));
#386=AXIS2_PLACEMENT_3D('',#383,#384,#385);
#387=CONICAL_SURFACE('',#386,8.415E-1,5.9E1);
#389=ORIENTED_EDGE('',*,*,#388,.T.);
#390=ORIENTED_EDGE('',*,*,#377,.T.);
#392=ORIENTED_EDGE('',*,*,#391,.F.);
#393=EDGE_LOOP('',(#389,#390,#392));
#394=FACE_OUTER_BOUND('',#393,.F.);
#395=ADVANCED_FACE('',(#394),#387,.F.);
#396=CARTESIAN_POINT('',(0.E0,0.E0,-2.061420418952E1));
#397=DIRECTION('',(0.E0,0.E0,-1.E0));
#398=DIRECTION('',(1.E0,0.E0,0.E0));
#399=AXIS2_PLACEMENT_3D('',#396,#397,#398);
#400=CONICAL_SURFACE('',#399,8.415E-1,5.9E1);
#401=ORIENTED_EDGE('',*,*,#388,.F.);
#402=ORIENTED_EDGE('',*,*,#391,.T.);
#403=ORIENTED_EDGE('',*,*,#363,.F.);
#404=EDGE_LOOP('',(#401,#402,#403));
#405=FACE_OUTER_BOUND('',#404,.F.);
#406=ADVANCED_FACE('',(#405),#400,.F.);
#407=CLOSED_SHELL('',(#208,#223,#245,#257,#276,#292,#307,#320,#330,#342,#354,
#369,#382,#395,#406));
#408=CARTESIAN_POINT('',(0.E0,0.E0,-2.71E1));
#409=DIRECTION('',(0.E0,0.E0,1.E0));
#410=DIRECTION('',(-1.E0,0.E0,0.E0));
#411=AXIS2_PLACEMENT_3D('',#408,#409,#410);
#413=CARTESIAN_POINT('',(0.E0,0.E0,-2.71E1));
#414=DIRECTION('',(0.E0,0.E0,1.E0));
#415=DIRECTION('',(1.E0,0.E0,0.E0));
#416=AXIS2_PLACEMENT_3D('',#413,#414,#415);
#418=DIRECTION('',(0.E0,0.E0,1.E0));
#419=VECTOR('',#418,6.E0);
#420=CARTESIAN_POINT('',(-2.E0,0.E0,-2.71E1));
#421=LINE('',#420,#419);
#422=DIRECTION('',(0.E0,0.E0,1.E0));
#423=VECTOR('',#422,6.E0);
#424=CARTESIAN_POINT('',(2.E0,0.E0,-2.71E1));
#425=LINE('',#424,#423);
#426=CARTESIAN_POINT('',(0.E0,0.E0,-2.11E1));
#427=DIRECTION('',(0.E0,0.E0,1.E0));
#428=DIRECTION('',(1.E0,0.E0,0.E0));
#429=AXIS2_PLACEMENT_3D('',#426,#427,#428);
#431=CARTESIAN_POINT('',(0.E0,0.E0,-2.11E1));
#432=DIRECTION('',(0.E0,0.E0,-1.E0));
#433=DIRECTION('',(1.E0,0.E0,0.E0));
#434=AXIS2_PLACEMENT_3D('',#431,#432,#433);
#436=CARTESIAN_POINT('',(0.E0,0.E0,-2.11E1));
#437=DIRECTION('',(0.E0,0.E0,-1.E0));
#438=DIRECTION('',(1.E0,0.E0,0.E0));
#439=AXIS2_PLACEMENT_3D('',#436,#437,#438);
#441=CARTESIAN_POINT('',(0.E0,0.E0,-2.11E1));
#442=DIRECTION('',(0.E0,0.E0,-1.E0));
#443=DIRECTION('',(-1.E0,0.E0,0.E0));
#444=AXIS2_PLACEMENT_3D('',#441,#442,#443);
#446=CARTESIAN_POINT('',(2.E0,0.E0,-2.11E1));
#447=CARTESIAN_POINT('',(-2.E0,0.E0,-2.11E1));
#448=VERTEX_POINT('',#446);
#449=VERTEX_POINT('',#447);
#450=CARTESIAN_POINT('',(2.E0,0.E0,-2.71E1));
#451=CARTESIAN_POINT('',(-2.E0,0.E0,-2.71E1));
#452=VERTEX_POINT('',#450);
#453=VERTEX_POINT('',#451);
#454=CARTESIAN_POINT('',(1.65E0,0.E0,-2.11E1));
#455=CARTESIAN_POINT('',(-1.65E0,0.E0,-2.11E1));
#456=VERTEX_POINT('',#454);
#457=VERTEX_POINT('',#455);
#458=CARTESIAN_POINT('',(0.E0,0.E0,-1.975900897753E1));
#459=DIRECTION('',(0.E0,0.E0,-1.E0));
#460=DIRECTION('',(1.E0,0.E0,0.E0));
#461=AXIS2_PLACEMENT_3D('',#458,#459,#460);
#462=CYLINDRICAL_SURFACE('',#461,2.E0);
#464=ORIENTED_EDGE('',*,*,#463,.T.);
#466=ORIENTED_EDGE('',*,*,#465,.T.);
#468=ORIENTED_EDGE('',*,*,#467,.T.);
#470=ORIENTED_EDGE('',*,*,#469,.F.);
#471=EDGE_LOOP('',(#464,#466,#468,#470));
#472=FACE_OUTER_BOUND('',#471,.F.);
#473=ADVANCED_FACE('',(#472),#462,.F.);
#474=CARTESIAN_POINT('',(0.E0,0.E0,-1.975900897753E1));
#475=DIRECTION('',(0.E0,0.E0,-1.E0));
#476=DIRECTION('',(1.E0,0.E0,0.E0));
#477=AXIS2_PLACEMENT_3D('',#474,#475,#476);
#478=CYLINDRICAL_SURFACE('',#477,2.E0);
#480=ORIENTED_EDGE('',*,*,#479,.T.);
#481=ORIENTED_EDGE('',*,*,#469,.T.);
#483=ORIENTED_EDGE('',*,*,#482,.F.);
#484=ORIENTED_EDGE('',*,*,#465,.F.);
#485=EDGE_LOOP('',(#480,#481,#483,#484));
#486=FACE_OUTER_BOUND('',#485,.F.);
#487=ADVANCED_FACE('',(#486),#478,.F.);
#488=CARTESIAN_POINT('',(0.E0,0.E0,-2.11E1));
#489=DIRECTION('',(0.E0,0.E0,-1.E0));
#490=DIRECTION('',(1.E0,0.E0,0.E0));
#491=AXIS2_PLACEMENT_3D('',#488,#489,#490);
#492=PLANE('',#491);
#493=ORIENTED_EDGE('',*,*,#482,.T.);
#494=ORIENTED_EDGE('',*,*,#467,.F.);
#495=EDGE_LOOP('',(#493,#494));
#496=FACE_OUTER_BOUND('',#495,.F.);
#498=ORIENTED_EDGE('',*,*,#497,.T.);
#500=ORIENTED_EDGE('',*,*,#499,.T.);
#501=EDGE_LOOP('',(#498,#500));
#502=FACE_BOUND('',#501,.F.);
#503=ADVANCED_FACE('',(#496,#502),#492,.T.);
#504=OPEN_SHELL('',(#473,#487,#503));
#505=MANIFOLD_SOLID_BREP('',#407);
#506=SHELL_BASED_SURFACE_MODEL('',(#504));
#508=DIMENSIONAL_EXPONENTS(0.E0,0.E0,0.E0,0.E0,0.E0,0.E0,0.E0);
#510=PLANE_ANGLE_MEASURE_WITH_UNIT(PLANE_ANGLE_MEASURE(1.745329251994E-2),#509);
#511=(CONVERSION_BASED_UNIT('DEGREE',#510)NAMED_UNIT(*)PLANE_ANGLE_UNIT());
#513=UNCERTAINTY_MEASURE_WITH_UNIT(LENGTH_MEASURE(2.936778255969E-3),#507,
'closure',
'Maximum model space distance between geometric entities at asserted connectivities');
#514=(GEOMETRIC_REPRESENTATION_CONTEXT(3)GLOBAL_UNCERTAINTY_ASSIGNED_CONTEXT((
#513))GLOBAL_UNIT_ASSIGNED_CONTEXT((#507,#511,#512))REPRESENTATION_CONTEXT
('ID1','3'));
#515=CARTESIAN_POINT('',(0.E0,0.E0,0.E0));
#516=DIRECTION('',(0.E0,0.E0,1.E0));
#517=DIRECTION('',(1.E0,0.E0,0.E0));
#520=CARTESIAN_POINT('',(0.E0,0.E0,0.E0));
#521=DIRECTION('',(0.E0,0.E0,1.E0));
#522=DIRECTION('',(1.E0,0.E0,0.E0));
#525=CARTESIAN_POINT('',(0.E0,0.E0,0.E0));
#526=DIRECTION('',(0.E0,0.E0,1.E0));
#527=DIRECTION('',(1.E0,0.E0,0.E0));
#530=SHAPE_REPRESENTATION_RELATIONSHIP('','',#529,#519);
#531=SHAPE_REPRESENTATION_RELATIONSHIP('','',#529,#524);
#532=APPLICATION_CONTEXT(
'CONFIGURATION CONTROLLED 3D DESIGNS OF MECHANICAL PARTS AND ASSEMBLIES');
#533=APPLICATION_PROTOCOL_DEFINITION('international standard',
'config_control_design',1994,#532);
#534=DESIGN_CONTEXT('',#532,'design');
#535=MECHANICAL_CONTEXT('',#532,'mechanical');
#536=PRODUCT('FL-M04-1','FL-M04-1','NOT SPECIFIED',(#535));
#537=PRODUCT_DEFINITION_FORMATION_WITH_SPECIFIED_SOURCE('1','LAST_VERSION',#536,
.MADE.);
#546=CARTESIAN_POINT('',(4.E0,4.003924760324E0,0.E0));
#547=DIRECTION('',(0.E0,0.E0,1.E0));
#548=DIRECTION('',(1.E0,0.E0,0.E0));
#549=AXIS2_PLACEMENT_3D('',#546,#547,#548);
#550=ITEM_DEFINED_TRANSFORMATION('','',#528,#549);
#551=CARTESIAN_POINT('',(0.E0,0.E0,0.E0));
#552=DIRECTION('',(0.E0,0.E0,1.E0));
#553=DIRECTION('',(1.E0,0.E0,0.E0));
#555=(REPRESENTATION_RELATIONSHIP('','',#529,#543)REPRESENTATION_RELATIONSHIP_WITH_TRANSFORMATION(#550)SHAPE_REPRESENTATION_RELATIONSHIP());
#556=CONTEXT_DEPENDENT_SHAPE_REPRESENTATION(#555,#545);
#558=DIMENSIONAL_EXPONENTS(0.E0,0.E0,0.E0,0.E0,0.E0,0.E0,0.E0);
#560=PLANE_ANGLE_MEASURE_WITH_UNIT(PLANE_ANGLE_MEASURE(1.745329251994E-2),#559);
#561=(CONVERSION_BASED_UNIT('DEGREE',#560)NAMED_UNIT(*)PLANE_ANGLE_UNIT());
#563=UNCERTAINTY_MEASURE_WITH_UNIT(LENGTH_MEASURE(2.936778255969E-3),#557,
'closure',
'Maximum model space distance between geometric entities at asserted connectivities');
#564=(GEOMETRIC_REPRESENTATION_CONTEXT(3)GLOBAL_UNCERTAINTY_ASSIGNED_CONTEXT((
#563))GLOBAL_UNIT_ASSIGNED_CONTEXT((#557,#561,#562))REPRESENTATION_CONTEXT
('ID2','3'));
#565=CARTESIAN_POINT('',(0.E0,0.E0,0.E0));
#566=DIRECTION('',(0.E0,0.E0,1.E0));
#567=DIRECTION('',(1.E0,0.E0,0.E0));
#569=MECHANICAL_CONTEXT('',#532,'mechanical');
#570=PRODUCT('800245_ASM','800245_ASM','NOT SPECIFIED',(#569));
#571=PRODUCT_DEFINITION_FORMATION_WITH_SPECIFIED_SOURCE('1','LAST_VERSION',#570,
.MADE.);
#578=CARTESIAN_POINT('',(0.E0,0.E0,0.E0));
#579=DIRECTION('',(0.E0,0.E0,1.E0));
#580=DIRECTION('',(1.E0,0.E0,0.E0));
#581=AXIS2_PLACEMENT_3D('',#578,#579,#580);
#582=ITEM_DEFINED_TRANSFORMATION('','',#554,#581);
#583=(REPRESENTATION_RELATIONSHIP('','',#543,#575)REPRESENTATION_RELATIONSHIP_WITH_TRANSFORMATION(#582)SHAPE_REPRESENTATION_RELATIONSHIP());
#584=CONTEXT_DEPENDENT_SHAPE_REPRESENTATION(#583,#577);
#586=DIMENSIONAL_EXPONENTS(0.E0,0.E0,0.E0,0.E0,0.E0,0.E0,0.E0);
#588=PLANE_ANGLE_MEASURE_WITH_UNIT(PLANE_ANGLE_MEASURE(1.745329251994E-2),#587);
#589=(CONVERSION_BASED_UNIT('DEGREE',#588)NAMED_UNIT(*)PLANE_ANGLE_UNIT());
#591=UNCERTAINTY_MEASURE_WITH_UNIT(LENGTH_MEASURE(2.936778255969E-3),#585,
'closure',
'Maximum model space distance between geometric entities at asserted connectivities');
#592=(GEOMETRIC_REPRESENTATION_CONTEXT(3)GLOBAL_UNCERTAINTY_ASSIGNED_CONTEXT((
#591))GLOBAL_UNIT_ASSIGNED_CONTEXT((#585,#589,#590))REPRESENTATION_CONTEXT
('ID3','3'));
#593=CARTESIAN_POINT('',(0.E0,0.E0,0.E0));
#594=DIRECTION('',(0.E0,0.E0,1.E0));
#595=DIRECTION('',(1.E0,0.E0,0.E0));
#597=DESIGN_CONTEXT('',#532,'design');
#598=MECHANICAL_CONTEXT('',#532,'mechanical');
#599=PRODUCT('194164_ASM','194164_ASM','NOT SPECIFIED',(#598));
#600=PRODUCT_DEFINITION_FORMATION_WITH_SPECIFIED_SOURCE('1','LAST_VERSION',#599,
.MADE.);
#602=PRODUCT_CATEGORY('part','');
#603=PRODUCT_RELATED_PRODUCT_CATEGORY('assembly','',(#570,#599));
#604=PRODUCT_CATEGORY_RELATIONSHIP('','',#602,#603);
#605=PRODUCT_CATEGORY('part','');
#606=PRODUCT_RELATED_PRODUCT_CATEGORY('detail','',(#536));
#607=PRODUCT_CATEGORY_RELATIONSHIP('','',#605,#606);
#608=SECURITY_CLASSIFICATION_LEVEL('unclassified');
#609=SECURITY_CLASSIFICATION('','',#608);
#610=CC_DESIGN_SECURITY_CLASSIFICATION(#609,(#537,#571,#600,#544,#576));
#611=APPROVAL_STATUS('approved');
#612=APPROVAL(#611,'');
#613=CC_DESIGN_APPROVAL(#612,(#609,#537,#571,#600,#538,#572,#601));
#614=CALENDAR_DATE(116,14,3);
#615=COORDINATED_UNIVERSAL_TIME_OFFSET(5,0,.BEHIND.);
#616=LOCAL_TIME(12,12,3.5E1,#615);
#617=DATE_AND_TIME(#614,#616);
#618=APPROVAL_DATE_TIME(#617,#612);
#619=DATE_TIME_ROLE('creation_date');
#620=CC_DESIGN_DATE_AND_TIME_ASSIGNMENT(#617,#619,(#538,#572,#601));
#621=DATE_TIME_ROLE('classification_date');
#622=CC_DESIGN_DATE_AND_TIME_ASSIGNMENT(#617,#621,(#609));
#623=PERSON('UNSPECIFIED','UNSPECIFIED',$,$,$,$);
#624=ORGANIZATION('UNSPECIFIED','UNSPECIFIED','UNSPECIFIED');
#625=PERSON_AND_ORGANIZATION(#623,#624);
#626=APPROVAL_ROLE('approver');
#627=APPROVAL_PERSON_ORGANIZATION(#625,#612,#626);
#628=PERSON_AND_ORGANIZATION_ROLE('creator');
#629=CC_DESIGN_PERSON_AND_ORGANIZATION_ASSIGNMENT(#625,#628,(#537,#571,#600,
#538,#572,#601));
#630=PERSON_AND_ORGANIZATION_ROLE('design_supplier');
#631=CC_DESIGN_PERSON_AND_ORGANIZATION_ASSIGNMENT(#625,#630,(#537,#571,#600));
#632=PERSON_AND_ORGANIZATION_ROLE('classification_officer');
#633=CC_DESIGN_PERSON_AND_ORGANIZATION_ASSIGNMENT(#625,#632,(#609));
#634=PERSON_AND_ORGANIZATION_ROLE('design_owner');
#635=CC_DESIGN_PERSON_AND_ORGANIZATION_ASSIGNMENT(#625,#634,(#570,#599,#536));
#9=CIRCLE('',#8,4.E0);
#14=CIRCLE('',#13,4.E0);
#19=CIRCLE('',#18,1.65E0);
#24=CIRCLE('',#23,1.65E0);
#45=CIRCLE('',#44,4.E0);
#50=CIRCLE('',#49,4.E0);
#67=CIRCLE('',#66,4.E0);
#72=CIRCLE('',#71,4.E0);
#77=CIRCLE('',#76,3.575E0);
#82=CIRCLE('',#81,3.575E0);
#95=CIRCLE('',#94,3.575E0);
#100=CIRCLE('',#99,3.575E0);
#105=CIRCLE('',#104,4.E0);
#114=CIRCLE('',#113,4.E0);
#123=CIRCLE('',#122,1.65E0);
#132=CIRCLE('',#131,1.65E0);
#192=EDGE_CURVE('',#147,#148,#4,.T.);
#194=EDGE_CURVE('',#148,#150,#9,.T.);
#196=EDGE_CURVE('',#152,#150,#118,.T.);
#198=EDGE_CURVE('',#152,#147,#14,.T.);
#202=EDGE_CURVE('',#185,#186,#19,.T.);
#204=EDGE_CURVE('',#186,#185,#24,.T.);
#215=EDGE_CURVE('',#154,#147,#32,.T.);
#217=EDGE_CURVE('',#154,#156,#28,.T.);
#219=EDGE_CURVE('',#148,#156,#62,.T.);
#229=EDGE_CURVE('',#154,#158,#45,.T.);
#233=EDGE_CURVE('',#152,#160,#36,.T.);
#235=EDGE_CURVE('',#162,#160,#105,.T.);
#237=EDGE_CURVE('',#164,#162,#54,.T.);
#239=EDGE_CURVE('',#166,#164,#72,.T.);
#241=EDGE_CURVE('',#166,#158,#40,.T.);
#252=EDGE_CURVE('',#158,#156,#50,.T.);
#265=EDGE_CURVE('',#164,#166,#67,.T.);
#268=EDGE_CURVE('',#168,#162,#114,.T.);
#270=EDGE_CURVE('',#168,#150,#58,.T.);
#286=EDGE_CURVE('',#171,#172,#77,.T.);
#288=EDGE_CURVE('',#172,#171,#82,.T.);
#298=EDGE_CURVE('',#174,#172,#86,.T.);
#301=EDGE_CURVE('',#176,#171,#90,.T.);
#303=EDGE_CURVE('',#174,#176,#100,.T.);
#314=EDGE_CURVE('',#176,#174,#95,.T.);
#337=EDGE_CURVE('',#160,#168,#109,.T.);
#361=EDGE_CURVE('',#180,#185,#136,.T.);
#363=EDGE_CURVE('',#180,#182,#123,.T.);
#365=EDGE_CURVE('',#182,#186,#127,.T.);
#377=EDGE_CURVE('',#180,#182,#132,.T.);
#388=EDGE_CURVE('',#179,#180,#140,.T.);
#391=EDGE_CURVE('',#179,#182,#144,.T.);
#412=CIRCLE('',#411,2.E0);
#417=CIRCLE('',#416,2.E0);
#430=CIRCLE('',#429,2.E0);
#435=CIRCLE('',#434,2.E0);
#440=CIRCLE('',#439,1.65E0);
#445=CIRCLE('',#444,1.65E0);
#463=EDGE_CURVE('',#453,#452,#412,.T.);
#465=EDGE_CURVE('',#452,#448,#425,.T.);
#467=EDGE_CURVE('',#448,#449,#435,.T.);
#469=EDGE_CURVE('',#453,#449,#421,.T.);
#479=EDGE_CURVE('',#452,#453,#417,.T.);
#482=EDGE_CURVE('',#448,#449,#430,.T.);
#497=EDGE_CURVE('',#456,#457,#440,.T.);
#499=EDGE_CURVE('',#457,#456,#445,.T.);
#507=(LENGTH_UNIT()NAMED_UNIT(*)SI_UNIT(.MILLI.,.METRE.));
#509=(NAMED_UNIT(*)PLANE_ANGLE_UNIT()SI_UNIT($,.RADIAN.));
#512=(NAMED_UNIT(*)SI_UNIT($,.STERADIAN.)SOLID_ANGLE_UNIT());
#518=AXIS2_PLACEMENT_3D('',#515,#516,#517);
#519=ADVANCED_BREP_SHAPE_REPRESENTATION('',(#518,#505),#514);
#523=AXIS2_PLACEMENT_3D('',#520,#521,#522);
#524=MANIFOLD_SURFACE_SHAPE_REPRESENTATION('',(#523,#506),#514);
#528=AXIS2_PLACEMENT_3D('',#525,#526,#527);
#529=SHAPE_REPRESENTATION('',(#528),#514);
#538=PRODUCT_DEFINITION('design','',#537,#534);
#539=PRODUCT_DEFINITION_SHAPE('','SHAPE FOR FL-M04-1.',#538);
#540=SHAPE_DEFINITION_REPRESENTATION(#539,#529);
#541=SHAPE_DEFINITION_REPRESENTATION(#542,#543);
#542=PRODUCT_DEFINITION_SHAPE('','SHAPE FOR 800245_ASM.',#572);
#543=SHAPE_REPRESENTATION('',(#554,#549,#568),#564);
#544=NEXT_ASSEMBLY_USAGE_OCCURRENCE('0','Next assembly relationship','FL-M04-1',
#572,#538,$);
#545=PRODUCT_DEFINITION_SHAPE('Placement #0',
'Placement of FL-M04-1 with respect to 800245_ASM',#544);
#554=AXIS2_PLACEMENT_3D('',#551,#552,#553);
#557=(LENGTH_UNIT()NAMED_UNIT(*)SI_UNIT(.MILLI.,.METRE.));
#559=(NAMED_UNIT(*)PLANE_ANGLE_UNIT()SI_UNIT($,.RADIAN.));
#562=(NAMED_UNIT(*)SI_UNIT($,.STERADIAN.)SOLID_ANGLE_UNIT());
#568=AXIS2_PLACEMENT_3D('',#565,#566,#567);
#572=PRODUCT_DEFINITION('design','',#571,#534);
#573=SHAPE_DEFINITION_REPRESENTATION(#574,#575);
#574=PRODUCT_DEFINITION_SHAPE('','SHAPE FOR 194164_ASM.',#601);
#575=SHAPE_REPRESENTATION('',(#581,#596),#592);
#576=NEXT_ASSEMBLY_USAGE_OCCURRENCE('1','Next assembly relationship','800245',
#601,#572,$);
#577=PRODUCT_DEFINITION_SHAPE('Placement #1',
'Placement of 800245_ASM with respect to 194164_ASM',#576);
#585=(LENGTH_UNIT()NAMED_UNIT(*)SI_UNIT(.MILLI.,.METRE.));
#587=(NAMED_UNIT(*)PLANE_ANGLE_UNIT()SI_UNIT($,.RADIAN.));
#590=(NAMED_UNIT(*)SI_UNIT($,.STERADIAN.)SOLID_ANGLE_UNIT());
#596=AXIS2_PLACEMENT_3D('',#593,#594,#595);
#601=PRODUCT_DEFINITION('design','',#600,#597);
ENDSEC;
END-ISO-10303-21;
