ISO-10303-21;
HEADER;
FILE_DESCRIPTION((''),'2;1');
FILE_NAME('193998_ASM','2016-03-23T',('PDMAdmin'),(''),
'PRO/ENGINEER BY PARAMETRIC TECHNOLOGY CORPORATION, 2013230',
'PRO/ENGINEER BY PARAMETRIC TECHNOLOGY CORPORATION, 2013230','');
FILE_SCHEMA(('CONFIG_CONTROL_DESIGN'));
ENDSEC;
DATA;
#1=CARTESIAN_POINT('',(0.E0,0.E0,3.159965034965E-1));
#2=DIRECTION('',(0.E0,0.E0,1.E0));
#3=DIRECTION('',(0.E0,1.E0,0.E0));
#4=AXIS2_PLACEMENT_3D('',#1,#2,#3);
#6=CARTESIAN_POINT('',(0.E0,0.E0,3.159965034965E-1));
#7=DIRECTION('',(0.E0,0.E0,-1.E0));
#8=DIRECTION('',(0.E0,1.E0,0.E0));
#9=AXIS2_PLACEMENT_3D('',#6,#7,#8);
#11=CARTESIAN_POINT('',(0.E0,0.E0,-4.340034965035E-1));
#12=DIRECTION('',(0.E0,0.E0,1.E0));
#13=DIRECTION('',(0.E0,1.E0,0.E0));
#14=AXIS2_PLACEMENT_3D('',#11,#12,#13);
#16=DIRECTION('',(0.E0,0.E0,1.E0));
#17=VECTOR('',#16,7.5E-1);
#18=CARTESIAN_POINT('',(0.E0,9.35E-2,-4.340034965035E-1));
#19=LINE('',#18,#17);
#20=CARTESIAN_POINT('',(0.E0,0.E0,-4.340034965035E-1));
#21=DIRECTION('',(0.E0,0.E0,-1.E0));
#22=DIRECTION('',(0.E0,1.E0,0.E0));
#23=AXIS2_PLACEMENT_3D('',#20,#21,#22);
#25=DIRECTION('',(0.E0,0.E0,1.E0));
#26=VECTOR('',#25,7.5E-1);
#27=CARTESIAN_POINT('',(0.E0,-9.35E-2,-4.340034965035E-1));
#28=LINE('',#27,#26);
#29=CARTESIAN_POINT('',(0.E0,0.E0,-4.340034965035E-1));
#30=DIRECTION('',(0.E0,0.E0,1.E0));
#31=DIRECTION('',(0.E0,1.E0,0.E0));
#32=AXIS2_PLACEMENT_3D('',#29,#30,#31);
#34=CARTESIAN_POINT('',(0.E0,0.E0,-4.340034965035E-1));
#35=DIRECTION('',(0.E0,0.E0,-1.E0));
#36=DIRECTION('',(0.E0,1.E0,0.E0));
#37=AXIS2_PLACEMENT_3D('',#34,#35,#36);
#39=CARTESIAN_POINT('',(0.E0,0.E0,-1.933168360984E-1));
#40=DIRECTION('',(0.E0,0.E0,1.E0));
#41=DIRECTION('',(0.E0,1.E0,0.E0));
#42=AXIS2_PLACEMENT_3D('',#39,#40,#41);
#44=DIRECTION('',(0.E0,0.E0,-1.E0));
#45=VECTOR('',#44,2.406866604051E-1);
#46=CARTESIAN_POINT('',(0.E0,3.1E-2,-1.933168360984E-1));
#47=LINE('',#46,#45);
#48=CARTESIAN_POINT('',(0.E0,0.E0,-1.933168360984E-1));
#49=DIRECTION('',(0.E0,0.E0,-1.E0));
#50=DIRECTION('',(0.E0,1.E0,0.E0));
#51=AXIS2_PLACEMENT_3D('',#48,#49,#50);
#53=DIRECTION('',(0.E0,0.E0,-1.E0));
#54=VECTOR('',#53,2.406866604051E-1);
#55=CARTESIAN_POINT('',(0.E0,-3.1E-2,-1.933168360984E-1));
#56=LINE('',#55,#54);
#57=DIRECTION('',(0.E0,-8.571673007021E-1,-5.150380749101E-1));
#58=VECTOR('',#57,1.808281765684E-2);
#59=CARTESIAN_POINT('',(0.E0,4.65E-2,-1.840034965035E-1));
#60=LINE('',#59,#58);
#61=CARTESIAN_POINT('',(0.E0,0.E0,-1.840034965035E-1));
#62=DIRECTION('',(0.E0,0.E0,-1.E0));
#63=DIRECTION('',(0.E0,1.E0,0.E0));
#64=AXIS2_PLACEMENT_3D('',#61,#62,#63);
#66=DIRECTION('',(0.E0,8.571673007021E-1,-5.150380749101E-1));
#67=VECTOR('',#66,1.808281765684E-2);
#68=CARTESIAN_POINT('',(0.E0,-4.65E-2,-1.840034965035E-1));
#69=LINE('',#68,#67);
#70=CARTESIAN_POINT('',(0.E0,0.E0,-1.840034965035E-1));
#71=DIRECTION('',(0.E0,0.E0,1.E0));
#72=DIRECTION('',(0.E0,1.E0,0.E0));
#73=AXIS2_PLACEMENT_3D('',#70,#71,#72);
#75=CARTESIAN_POINT('',(0.E0,0.E0,3.159965034965E-1));
#76=DIRECTION('',(0.E0,0.E0,1.E0));
#77=DIRECTION('',(0.E0,1.E0,0.E0));
#78=AXIS2_PLACEMENT_3D('',#75,#76,#77);
#80=DIRECTION('',(0.E0,0.E0,-1.E0));
#81=VECTOR('',#80,5.E-1);
#82=CARTESIAN_POINT('',(0.E0,4.65E-2,3.159965034965E-1));
#83=LINE('',#82,#81);
#84=CARTESIAN_POINT('',(0.E0,0.E0,3.159965034965E-1));
#85=DIRECTION('',(0.E0,0.E0,-1.E0));
#86=DIRECTION('',(0.E0,1.E0,0.E0));
#87=AXIS2_PLACEMENT_3D('',#84,#85,#86);
#89=DIRECTION('',(0.E0,0.E0,-1.E0));
#90=VECTOR('',#89,5.E-1);
#91=CARTESIAN_POINT('',(0.E0,-4.65E-2,3.159965034965E-1));
#92=LINE('',#91,#90);
#93=CARTESIAN_POINT('',(0.E0,4.65E-2,3.159965034965E-1));
#94=CARTESIAN_POINT('',(0.E0,4.65E-2,-1.840034965035E-1));
#95=VERTEX_POINT('',#93);
#96=VERTEX_POINT('',#94);
#97=CARTESIAN_POINT('',(0.E0,3.1E-2,-1.933168360984E-1));
#98=VERTEX_POINT('',#97);
#99=CARTESIAN_POINT('',(0.E0,3.1E-2,-4.340034965035E-1));
#100=VERTEX_POINT('',#99);
#101=CARTESIAN_POINT('',(0.E0,9.35E-2,-4.340034965035E-1));
#102=CARTESIAN_POINT('',(0.E0,9.35E-2,3.159965034965E-1));
#103=VERTEX_POINT('',#101);
#104=VERTEX_POINT('',#102);
#105=CARTESIAN_POINT('',(0.E0,-4.65E-2,3.159965034965E-1));
#106=CARTESIAN_POINT('',(0.E0,-4.65E-2,-1.840034965035E-1));
#107=VERTEX_POINT('',#105);
#108=VERTEX_POINT('',#106);
#109=CARTESIAN_POINT('',(0.E0,-3.1E-2,-1.933168360984E-1));
#110=VERTEX_POINT('',#109);
#111=CARTESIAN_POINT('',(0.E0,-3.1E-2,-4.340034965035E-1));
#112=VERTEX_POINT('',#111);
#113=CARTESIAN_POINT('',(0.E0,-9.35E-2,-4.340034965035E-1));
#114=CARTESIAN_POINT('',(0.E0,-9.35E-2,3.159965034965E-1));
#115=VERTEX_POINT('',#113);
#116=VERTEX_POINT('',#114);
#117=CARTESIAN_POINT('',(0.E0,0.E0,3.159965034965E-1));
#118=DIRECTION('',(0.E0,0.E0,1.E0));
#119=DIRECTION('',(0.E0,1.E0,0.E0));
#120=AXIS2_PLACEMENT_3D('',#117,#118,#119);
#121=PLANE('',#120);
#123=ORIENTED_EDGE('',*,*,#122,.F.);
#125=ORIENTED_EDGE('',*,*,#124,.T.);
#126=EDGE_LOOP('',(#123,#125));
#127=FACE_OUTER_BOUND('',#126,.F.);
#129=ORIENTED_EDGE('',*,*,#128,.F.);
#131=ORIENTED_EDGE('',*,*,#130,.T.);
#132=EDGE_LOOP('',(#129,#131));
#133=FACE_BOUND('',#132,.F.);
#134=ADVANCED_FACE('',(#127,#133),#121,.T.);
#135=CARTESIAN_POINT('',(0.E0,0.E0,-4.715034965035E-1));
#136=DIRECTION('',(0.E0,0.E0,1.E0));
#137=DIRECTION('',(0.E0,1.E0,0.E0));
#138=AXIS2_PLACEMENT_3D('',#135,#136,#137);
#139=CYLINDRICAL_SURFACE('',#138,9.35E-2);
#141=ORIENTED_EDGE('',*,*,#140,.T.);
#142=ORIENTED_EDGE('',*,*,#122,.T.);
#144=ORIENTED_EDGE('',*,*,#143,.F.);
#146=ORIENTED_EDGE('',*,*,#145,.F.);
#147=EDGE_LOOP('',(#141,#142,#144,#146));
#148=FACE_OUTER_BOUND('',#147,.F.);
#149=ADVANCED_FACE('',(#148),#139,.T.);
#150=CARTESIAN_POINT('',(0.E0,0.E0,-4.715034965035E-1));
#151=DIRECTION('',(0.E0,0.E0,1.E0));
#152=DIRECTION('',(0.E0,1.E0,0.E0));
#153=AXIS2_PLACEMENT_3D('',#150,#151,#152);
#154=CYLINDRICAL_SURFACE('',#153,9.35E-2);
#155=ORIENTED_EDGE('',*,*,#140,.F.);
#157=ORIENTED_EDGE('',*,*,#156,.T.);
#158=ORIENTED_EDGE('',*,*,#143,.T.);
#159=ORIENTED_EDGE('',*,*,#124,.F.);
#160=EDGE_LOOP('',(#155,#157,#158,#159));
#161=FACE_OUTER_BOUND('',#160,.F.);
#162=ADVANCED_FACE('',(#161),#154,.T.);
#163=CARTESIAN_POINT('',(0.E0,0.E0,-4.340034965035E-1));
#164=DIRECTION('',(0.E0,0.E0,1.E0));
#165=DIRECTION('',(0.E0,1.E0,0.E0));
#166=AXIS2_PLACEMENT_3D('',#163,#164,#165);
#167=PLANE('',#166);
#168=ORIENTED_EDGE('',*,*,#156,.F.);
#169=ORIENTED_EDGE('',*,*,#145,.T.);
#170=EDGE_LOOP('',(#168,#169));
#171=FACE_OUTER_BOUND('',#170,.F.);
#173=ORIENTED_EDGE('',*,*,#172,.F.);
#175=ORIENTED_EDGE('',*,*,#174,.T.);
#176=EDGE_LOOP('',(#173,#175));
#177=FACE_BOUND('',#176,.F.);
#178=ADVANCED_FACE('',(#171,#177),#167,.F.);
#179=CARTESIAN_POINT('',(0.E0,0.E0,-4.715034965035E-1));
#180=DIRECTION('',(0.E0,0.E0,1.E0));
#181=DIRECTION('',(0.E0,1.E0,0.E0));
#182=AXIS2_PLACEMENT_3D('',#179,#180,#181);
#183=CYLINDRICAL_SURFACE('',#182,3.1E-2);
#185=ORIENTED_EDGE('',*,*,#184,.T.);
#186=ORIENTED_EDGE('',*,*,#172,.T.);
#188=ORIENTED_EDGE('',*,*,#187,.F.);
#190=ORIENTED_EDGE('',*,*,#189,.F.);
#191=EDGE_LOOP('',(#185,#186,#188,#190));
#192=FACE_OUTER_BOUND('',#191,.F.);
#193=ADVANCED_FACE('',(#192),#183,.F.);
#194=CARTESIAN_POINT('',(0.E0,0.E0,-4.715034965035E-1));
#195=DIRECTION('',(0.E0,0.E0,1.E0));
#196=DIRECTION('',(0.E0,1.E0,0.E0));
#197=AXIS2_PLACEMENT_3D('',#194,#195,#196);
#198=CYLINDRICAL_SURFACE('',#197,3.1E-2);
#199=ORIENTED_EDGE('',*,*,#184,.F.);
#201=ORIENTED_EDGE('',*,*,#200,.T.);
#202=ORIENTED_EDGE('',*,*,#187,.T.);
#203=ORIENTED_EDGE('',*,*,#174,.F.);
#204=EDGE_LOOP('',(#199,#201,#202,#203));
#205=FACE_OUTER_BOUND('',#204,.F.);
#206=ADVANCED_FACE('',(#205),#198,.F.);
#207=CARTESIAN_POINT('',(0.E0,0.E0,-1.886601663010E-1));
#208=DIRECTION('',(0.E0,0.E0,1.E0));
#209=DIRECTION('',(0.E0,1.E0,0.E0));
#210=AXIS2_PLACEMENT_3D('',#207,#208,#209);
#211=CONICAL_SURFACE('',#210,3.875E-2,5.9E1);
#213=ORIENTED_EDGE('',*,*,#212,.F.);
#215=ORIENTED_EDGE('',*,*,#214,.T.);
#217=ORIENTED_EDGE('',*,*,#216,.T.);
#218=ORIENTED_EDGE('',*,*,#200,.F.);
#219=EDGE_LOOP('',(#213,#215,#217,#218));
#220=FACE_OUTER_BOUND('',#219,.F.);
#221=ADVANCED_FACE('',(#220),#211,.F.);
#222=CARTESIAN_POINT('',(0.E0,0.E0,-1.886601663010E-1));
#223=DIRECTION('',(0.E0,0.E0,1.E0));
#224=DIRECTION('',(0.E0,1.E0,0.E0));
#225=AXIS2_PLACEMENT_3D('',#222,#223,#224);
#226=CONICAL_SURFACE('',#225,3.875E-2,5.9E1);
#227=ORIENTED_EDGE('',*,*,#212,.T.);
#228=ORIENTED_EDGE('',*,*,#189,.T.);
#229=ORIENTED_EDGE('',*,*,#216,.F.);
#231=ORIENTED_EDGE('',*,*,#230,.F.);
#232=EDGE_LOOP('',(#227,#228,#229,#231));
#233=FACE_OUTER_BOUND('',#232,.F.);
#234=ADVANCED_FACE('',(#233),#226,.F.);
#235=CARTESIAN_POINT('',(0.E0,0.E0,-4.715034965035E-1));
#236=DIRECTION('',(0.E0,0.E0,1.E0));
#237=DIRECTION('',(0.E0,1.E0,0.E0));
#238=AXIS2_PLACEMENT_3D('',#235,#236,#237);
#239=CYLINDRICAL_SURFACE('',#238,4.65E-2);
#241=ORIENTED_EDGE('',*,*,#240,.T.);
#242=ORIENTED_EDGE('',*,*,#230,.T.);
#244=ORIENTED_EDGE('',*,*,#243,.F.);
#245=ORIENTED_EDGE('',*,*,#130,.F.);
#246=EDGE_LOOP('',(#241,#242,#244,#245));
#247=FACE_OUTER_BOUND('',#246,.F.);
#248=ADVANCED_FACE('',(#247),#239,.F.);
#249=CARTESIAN_POINT('',(0.E0,0.E0,-4.715034965035E-1));
#250=DIRECTION('',(0.E0,0.E0,1.E0));
#251=DIRECTION('',(0.E0,1.E0,0.E0));
#252=AXIS2_PLACEMENT_3D('',#249,#250,#251);
#253=CYLINDRICAL_SURFACE('',#252,4.65E-2);
#254=ORIENTED_EDGE('',*,*,#240,.F.);
#255=ORIENTED_EDGE('',*,*,#128,.T.);
#256=ORIENTED_EDGE('',*,*,#243,.T.);
#257=ORIENTED_EDGE('',*,*,#214,.F.);
#258=EDGE_LOOP('',(#254,#255,#256,#257));
#259=FACE_OUTER_BOUND('',#258,.F.);
#260=ADVANCED_FACE('',(#259),#253,.F.);
#261=CLOSED_SHELL('',(#134,#149,#162,#178,#193,#206,#221,#234,#248,#260));
#262=MANIFOLD_SOLID_BREP('',#261);
#263=DIMENSIONAL_EXPONENTS(1.E0,0.E0,0.E0,0.E0,0.E0,0.E0,0.E0);
#265=LENGTH_MEASURE_WITH_UNIT(LENGTH_MEASURE(2.54E1),#264);
#266=(CONVERSION_BASED_UNIT('INCH',#265)LENGTH_UNIT()NAMED_UNIT(#263));
#267=DIMENSIONAL_EXPONENTS(0.E0,0.E0,0.E0,0.E0,0.E0,0.E0,0.E0);
#269=PLANE_ANGLE_MEASURE_WITH_UNIT(PLANE_ANGLE_MEASURE(1.745329251994E-2),#268);
#270=(CONVERSION_BASED_UNIT('DEGREE',#269)NAMED_UNIT(*)PLANE_ANGLE_UNIT());
#272=UNCERTAINTY_MEASURE_WITH_UNIT(LENGTH_MEASURE(8.302482169345E-5),#266,
'closure',
'Maximum model space distance between geometric entities at asserted connectivities');
#273=(GEOMETRIC_REPRESENTATION_CONTEXT(3)GLOBAL_UNCERTAINTY_ASSIGNED_CONTEXT((
#272))GLOBAL_UNIT_ASSIGNED_CONTEXT((#266,#270,#271))REPRESENTATION_CONTEXT
('ID1','3'));
#274=CARTESIAN_POINT('',(0.E0,0.E0,0.E0));
#275=DIRECTION('',(0.E0,0.E0,1.E0));
#276=DIRECTION('',(1.E0,0.E0,0.E0));
#279=APPLICATION_CONTEXT(
'CONFIGURATION CONTROLLED 3D DESIGNS OF MECHANICAL PARTS AND ASSEMBLIES');
#280=APPLICATION_PROTOCOL_DEFINITION('international standard',
'config_control_design',1994,#279);
#281=DESIGN_CONTEXT('',#279,'design');
#282=MECHANICAL_CONTEXT('',#279,'mechanical');
#283=PRODUCT('156486','156486','NOT SPECIFIED',(#282));
#284=PRODUCT_DEFINITION_FORMATION_WITH_SPECIFIED_SOURCE('1','LAST_VERSION',#283,
.MADE.);
#293=CARTESIAN_POINT('',(0.E0,0.E0,0.E0));
#294=DIRECTION('',(0.E0,0.E0,1.E0));
#295=DIRECTION('',(1.E0,0.E0,0.E0));
#296=AXIS2_PLACEMENT_3D('',#293,#294,#295);
#297=ITEM_DEFINED_TRANSFORMATION('','',#277,#296);
#298=CARTESIAN_POINT('',(0.E0,0.E0,0.E0));
#299=DIRECTION('',(0.E0,0.E0,1.E0));
#300=DIRECTION('',(1.E0,0.E0,0.E0));
#302=(REPRESENTATION_RELATIONSHIP('','',#278,#290)REPRESENTATION_RELATIONSHIP_WITH_TRANSFORMATION(#297)SHAPE_REPRESENTATION_RELATIONSHIP());
#303=CONTEXT_DEPENDENT_SHAPE_REPRESENTATION(#302,#292);
#304=CARTESIAN_POINT('',(0.E0,0.E0,0.E0));
#305=DIRECTION('',(0.E0,0.E0,1.E0));
#306=DIRECTION('',(0.E0,-1.E0,0.E0));
#307=AXIS2_PLACEMENT_3D('',#304,#305,#306);
#309=CARTESIAN_POINT('',(0.E0,0.E0,0.E0));
#310=DIRECTION('',(0.E0,0.E0,1.E0));
#311=DIRECTION('',(0.E0,1.E0,0.E0));
#312=AXIS2_PLACEMENT_3D('',#309,#310,#311);
#314=CARTESIAN_POINT('',(0.E0,0.E0,0.E0));
#315=DIRECTION('',(0.E0,0.E0,-1.E0));
#316=DIRECTION('',(0.E0,-1.E0,0.E0));
#317=AXIS2_PLACEMENT_3D('',#314,#315,#316);
#319=CARTESIAN_POINT('',(0.E0,0.E0,0.E0));
#320=DIRECTION('',(0.E0,0.E0,-1.E0));
#321=DIRECTION('',(0.E0,1.E0,0.E0));
#322=AXIS2_PLACEMENT_3D('',#319,#320,#321);
#324=DIRECTION('',(0.E0,0.E0,1.E0));
#325=VECTOR('',#324,1.E0);
#326=CARTESIAN_POINT('',(0.E0,-4.35E-2,0.E0));
#327=LINE('',#326,#325);
#328=DIRECTION('',(0.E0,0.E0,1.E0));
#329=VECTOR('',#328,1.E0);
#330=CARTESIAN_POINT('',(0.E0,4.35E-2,0.E0));
#331=LINE('',#330,#329);
#332=CARTESIAN_POINT('',(0.E0,0.E0,1.E0));
#333=DIRECTION('',(0.E0,0.E0,1.E0));
#334=DIRECTION('',(0.E0,-1.E0,0.E0));
#335=AXIS2_PLACEMENT_3D('',#332,#333,#334);
#337=CARTESIAN_POINT('',(0.E0,0.E0,1.E0));
#338=DIRECTION('',(0.E0,0.E0,1.E0));
#339=DIRECTION('',(0.E0,1.E0,0.E0));
#340=AXIS2_PLACEMENT_3D('',#337,#338,#339);
#342=CARTESIAN_POINT('',(0.E0,0.E0,1.E0));
#343=DIRECTION('',(0.E0,0.E0,-1.E0));
#344=DIRECTION('',(0.E0,-1.E0,0.E0));
#345=AXIS2_PLACEMENT_3D('',#342,#343,#344);
#347=CARTESIAN_POINT('',(0.E0,0.E0,1.E0));
#348=DIRECTION('',(0.E0,0.E0,-1.E0));
#349=DIRECTION('',(0.E0,1.E0,0.E0));
#350=AXIS2_PLACEMENT_3D('',#347,#348,#349);
#352=DIRECTION('',(0.E0,0.E0,1.E0));
#353=VECTOR('',#352,1.E0);
#354=CARTESIAN_POINT('',(0.E0,-2.95E-2,0.E0));
#355=LINE('',#354,#353);
#356=DIRECTION('',(0.E0,0.E0,1.E0));
#357=VECTOR('',#356,1.E0);
#358=CARTESIAN_POINT('',(0.E0,2.95E-2,0.E0));
#359=LINE('',#358,#357);
#360=CARTESIAN_POINT('',(0.E0,-4.35E-2,0.E0));
#361=CARTESIAN_POINT('',(0.E0,4.35E-2,0.E0));
#362=VERTEX_POINT('',#360);
#363=VERTEX_POINT('',#361);
#364=CARTESIAN_POINT('',(0.E0,-2.95E-2,0.E0));
#365=CARTESIAN_POINT('',(0.E0,2.95E-2,0.E0));
#366=VERTEX_POINT('',#364);
#367=VERTEX_POINT('',#365);
#368=CARTESIAN_POINT('',(0.E0,-4.35E-2,1.E0));
#369=CARTESIAN_POINT('',(0.E0,4.35E-2,1.E0));
#370=VERTEX_POINT('',#368);
#371=VERTEX_POINT('',#369);
#372=CARTESIAN_POINT('',(0.E0,-2.95E-2,1.E0));
#373=CARTESIAN_POINT('',(0.E0,2.95E-2,1.E0));
#374=VERTEX_POINT('',#372);
#375=VERTEX_POINT('',#373);
#376=CARTESIAN_POINT('',(0.E0,0.E0,0.E0));
#377=DIRECTION('',(0.E0,0.E0,1.E0));
#378=DIRECTION('',(0.E0,-1.E0,0.E0));
#379=AXIS2_PLACEMENT_3D('',#376,#377,#378);
#380=PLANE('',#379);
#382=ORIENTED_EDGE('',*,*,#381,.T.);
#384=ORIENTED_EDGE('',*,*,#383,.T.);
#385=EDGE_LOOP('',(#382,#384));
#386=FACE_OUTER_BOUND('',#385,.F.);
#388=ORIENTED_EDGE('',*,*,#387,.T.);
#390=ORIENTED_EDGE('',*,*,#389,.T.);
#391=EDGE_LOOP('',(#388,#390));
#392=FACE_BOUND('',#391,.F.);
#393=ADVANCED_FACE('',(#386,#392),#380,.F.);
#394=CARTESIAN_POINT('',(0.E0,0.E0,0.E0));
#395=DIRECTION('',(0.E0,0.E0,1.E0));
#396=DIRECTION('',(0.E0,-1.E0,0.E0));
#397=AXIS2_PLACEMENT_3D('',#394,#395,#396);
#398=CYLINDRICAL_SURFACE('',#397,4.35E-2);
#399=ORIENTED_EDGE('',*,*,#381,.F.);
#401=ORIENTED_EDGE('',*,*,#400,.T.);
#403=ORIENTED_EDGE('',*,*,#402,.T.);
#405=ORIENTED_EDGE('',*,*,#404,.F.);
#406=EDGE_LOOP('',(#399,#401,#403,#405));
#407=FACE_OUTER_BOUND('',#406,.F.);
#408=ADVANCED_FACE('',(#407),#398,.T.);
#409=CARTESIAN_POINT('',(0.E0,0.E0,0.E0));
#410=DIRECTION('',(0.E0,0.E0,1.E0));
#411=DIRECTION('',(0.E0,-1.E0,0.E0));
#412=AXIS2_PLACEMENT_3D('',#409,#410,#411);
#413=CYLINDRICAL_SURFACE('',#412,4.35E-2);
#414=ORIENTED_EDGE('',*,*,#383,.F.);
#415=ORIENTED_EDGE('',*,*,#404,.T.);
#417=ORIENTED_EDGE('',*,*,#416,.T.);
#418=ORIENTED_EDGE('',*,*,#400,.F.);
#419=EDGE_LOOP('',(#414,#415,#417,#418));
#420=FACE_OUTER_BOUND('',#419,.F.);
#421=ADVANCED_FACE('',(#420),#413,.T.);
#422=CARTESIAN_POINT('',(0.E0,0.E0,1.E0));
#423=DIRECTION('',(0.E0,0.E0,1.E0));
#424=DIRECTION('',(0.E0,-1.E0,0.E0));
#425=AXIS2_PLACEMENT_3D('',#422,#423,#424);
#426=PLANE('',#425);
#427=ORIENTED_EDGE('',*,*,#402,.F.);
#428=ORIENTED_EDGE('',*,*,#416,.F.);
#429=EDGE_LOOP('',(#427,#428));
#430=FACE_OUTER_BOUND('',#429,.F.);
#432=ORIENTED_EDGE('',*,*,#431,.F.);
#434=ORIENTED_EDGE('',*,*,#433,.F.);
#435=EDGE_LOOP('',(#432,#434));
#436=FACE_BOUND('',#435,.F.);
#437=ADVANCED_FACE('',(#430,#436),#426,.T.);
#438=CARTESIAN_POINT('',(0.E0,0.E0,0.E0));
#439=DIRECTION('',(0.E0,0.E0,1.E0));
#440=DIRECTION('',(0.E0,-1.E0,0.E0));
#441=AXIS2_PLACEMENT_3D('',#438,#439,#440);
#442=CYLINDRICAL_SURFACE('',#441,2.95E-2);
#443=ORIENTED_EDGE('',*,*,#387,.F.);
#445=ORIENTED_EDGE('',*,*,#444,.T.);
#446=ORIENTED_EDGE('',*,*,#431,.T.);
#448=ORIENTED_EDGE('',*,*,#447,.F.);
#449=EDGE_LOOP('',(#443,#445,#446,#448));
#450=FACE_OUTER_BOUND('',#449,.F.);
#451=ADVANCED_FACE('',(#450),#442,.F.);
#452=CARTESIAN_POINT('',(0.E0,0.E0,0.E0));
#453=DIRECTION('',(0.E0,0.E0,1.E0));
#454=DIRECTION('',(0.E0,-1.E0,0.E0));
#455=AXIS2_PLACEMENT_3D('',#452,#453,#454);
#456=CYLINDRICAL_SURFACE('',#455,2.95E-2);
#457=ORIENTED_EDGE('',*,*,#389,.F.);
#458=ORIENTED_EDGE('',*,*,#447,.T.);
#459=ORIENTED_EDGE('',*,*,#433,.T.);
#460=ORIENTED_EDGE('',*,*,#444,.F.);
#461=EDGE_LOOP('',(#457,#458,#459,#460));
#462=FACE_OUTER_BOUND('',#461,.F.);
#463=ADVANCED_FACE('',(#462),#456,.F.);
#464=CLOSED_SHELL('',(#393,#408,#421,#437,#451,#463));
#465=MANIFOLD_SOLID_BREP('',#464);
#466=DIMENSIONAL_EXPONENTS(1.E0,0.E0,0.E0,0.E0,0.E0,0.E0,0.E0);
#468=LENGTH_MEASURE_WITH_UNIT(LENGTH_MEASURE(2.54E1),#467);
#469=(CONVERSION_BASED_UNIT('INCH',#468)LENGTH_UNIT()NAMED_UNIT(#466));
#470=DIMENSIONAL_EXPONENTS(0.E0,0.E0,0.E0,0.E0,0.E0,0.E0,0.E0);
#472=PLANE_ANGLE_MEASURE_WITH_UNIT(PLANE_ANGLE_MEASURE(1.745329251994E-2),#471);
#473=(CONVERSION_BASED_UNIT('DEGREE',#472)NAMED_UNIT(*)PLANE_ANGLE_UNIT());
#475=UNCERTAINTY_MEASURE_WITH_UNIT(LENGTH_MEASURE(1.007500268280E-4),#469,
'closure',
'Maximum model space distance between geometric entities at asserted connectivities');
#476=(GEOMETRIC_REPRESENTATION_CONTEXT(3)GLOBAL_UNCERTAINTY_ASSIGNED_CONTEXT((
#475))GLOBAL_UNIT_ASSIGNED_CONTEXT((#469,#473,#474))REPRESENTATION_CONTEXT
('ID2','3'));
#477=CARTESIAN_POINT('',(0.E0,0.E0,0.E0));
#478=DIRECTION('',(0.E0,0.E0,1.E0));
#479=DIRECTION('',(1.E0,0.E0,0.E0));
#482=MECHANICAL_CONTEXT('',#279,'mechanical');
#483=PRODUCT('39681','39681','NOT SPECIFIED',(#482));
#484=PRODUCT_DEFINITION_FORMATION_WITH_SPECIFIED_SOURCE('1','LAST_VERSION',#483,
.MADE.);
#490=CARTESIAN_POINT('',(0.E0,0.E0,8.026311188811E0));
#491=DIRECTION('',(0.E0,0.E0,1.E0));
#492=DIRECTION('',(0.E0,-1.E0,0.E0));
#493=AXIS2_PLACEMENT_3D('',#490,#491,#492);
#494=ITEM_DEFINED_TRANSFORMATION('','',#480,#493);
#495=CARTESIAN_POINT('',(0.E0,0.E0,0.E0));
#496=DIRECTION('',(0.E0,0.E0,1.E0));
#497=DIRECTION('',(1.E0,0.E0,0.E0));
#499=(REPRESENTATION_RELATIONSHIP('','',#481,#290)REPRESENTATION_RELATIONSHIP_WITH_TRANSFORMATION(#494)SHAPE_REPRESENTATION_RELATIONSHIP());
#500=CONTEXT_DEPENDENT_SHAPE_REPRESENTATION(#499,#489);
#503=CARTESIAN_POINT('',(0.E0,0.E0,3.342631118881E1));
#504=DIRECTION('',(0.E0,0.E0,1.E0));
#505=DIRECTION('',(0.E0,-1.E0,0.E0));
#506=AXIS2_PLACEMENT_3D('',#503,#504,#505);
#507=ITEM_DEFINED_TRANSFORMATION('','',#480,#506);
#508=CARTESIAN_POINT('',(0.E0,0.E0,0.E0));
#509=DIRECTION('',(0.E0,0.E0,1.E0));
#510=DIRECTION('',(1.E0,0.E0,0.E0));
#512=(REPRESENTATION_RELATIONSHIP('','',#481,#290)REPRESENTATION_RELATIONSHIP_WITH_TRANSFORMATION(#507)SHAPE_REPRESENTATION_RELATIONSHIP());
#513=CONTEXT_DEPENDENT_SHAPE_REPRESENTATION(#512,#502);
#516=CARTESIAN_POINT('',(0.E0,0.E0,5.882631118881E1));
#517=DIRECTION('',(0.E0,0.E0,1.E0));
#518=DIRECTION('',(0.E0,-1.E0,0.E0));
#519=AXIS2_PLACEMENT_3D('',#516,#517,#518);
#520=ITEM_DEFINED_TRANSFORMATION('','',#480,#519);
#521=CARTESIAN_POINT('',(0.E0,0.E0,0.E0));
#522=DIRECTION('',(0.E0,0.E0,1.E0));
#523=DIRECTION('',(1.E0,0.E0,0.E0));
#525=(REPRESENTATION_RELATIONSHIP('','',#481,#290)REPRESENTATION_RELATIONSHIP_WITH_TRANSFORMATION(#520)SHAPE_REPRESENTATION_RELATIONSHIP());
#526=CONTEXT_DEPENDENT_SHAPE_REPRESENTATION(#525,#515);
#528=DIMENSIONAL_EXPONENTS(0.E0,0.E0,0.E0,0.E0,0.E0,0.E0,0.E0);
#530=PLANE_ANGLE_MEASURE_WITH_UNIT(PLANE_ANGLE_MEASURE(1.745329251994E-2),#529);
#531=(CONVERSION_BASED_UNIT('DEGREE',#530)NAMED_UNIT(*)PLANE_ANGLE_UNIT());
#533=UNCERTAINTY_MEASURE_WITH_UNIT(LENGTH_MEASURE(9.548303763131E-3),#527,
'closure',
'Maximum model space distance between geometric entities at asserted connectivities');
#534=(GEOMETRIC_REPRESENTATION_CONTEXT(3)GLOBAL_UNCERTAINTY_ASSIGNED_CONTEXT((
#533))GLOBAL_UNIT_ASSIGNED_CONTEXT((#527,#531,#532))REPRESENTATION_CONTEXT
('ID3','3'));
#535=CARTESIAN_POINT('',(0.E0,0.E0,0.E0));
#536=DIRECTION('',(0.E0,0.E0,1.E0));
#537=DIRECTION('',(1.E0,0.E0,0.E0));
#539=DESIGN_CONTEXT('',#279,'design');
#540=MECHANICAL_CONTEXT('',#279,'mechanical');
#541=PRODUCT('17748_ASM','17748_ASM','NOT SPECIFIED',(#540));
#542=PRODUCT_DEFINITION_FORMATION_WITH_SPECIFIED_SOURCE('1','LAST_VERSION',#541,
.MADE.);
#549=CARTESIAN_POINT('',(0.E0,0.E0,0.E0));
#550=DIRECTION('',(0.E0,0.E0,1.E0));
#551=DIRECTION('',(1.E0,0.E0,0.E0));
#552=AXIS2_PLACEMENT_3D('',#549,#550,#551);
#553=ITEM_DEFINED_TRANSFORMATION('','',#301,#552);
#554=(REPRESENTATION_RELATIONSHIP('','',#290,#546)REPRESENTATION_RELATIONSHIP_WITH_TRANSFORMATION(#553)SHAPE_REPRESENTATION_RELATIONSHIP());
#555=CONTEXT_DEPENDENT_SHAPE_REPRESENTATION(#554,#548);
#557=DIMENSIONAL_EXPONENTS(0.E0,0.E0,0.E0,0.E0,0.E0,0.E0,0.E0);
#559=PLANE_ANGLE_MEASURE_WITH_UNIT(PLANE_ANGLE_MEASURE(1.745329251994E-2),#558);
#560=(CONVERSION_BASED_UNIT('DEGREE',#559)NAMED_UNIT(*)PLANE_ANGLE_UNIT());
#562=UNCERTAINTY_MEASURE_WITH_UNIT(LENGTH_MEASURE(9.548303763131E-3),#556,
'closure',
'Maximum model space distance between geometric entities at asserted connectivities');
#563=(GEOMETRIC_REPRESENTATION_CONTEXT(3)GLOBAL_UNCERTAINTY_ASSIGNED_CONTEXT((
#562))GLOBAL_UNIT_ASSIGNED_CONTEXT((#556,#560,#561))REPRESENTATION_CONTEXT
('ID4','3'));
#564=CARTESIAN_POINT('',(0.E0,0.E0,0.E0));
#565=DIRECTION('',(0.E0,0.E0,1.E0));
#566=DIRECTION('',(1.E0,0.E0,0.E0));
#568=MECHANICAL_CONTEXT('',#279,'mechanical');
#569=PRODUCT('193998_ASM','193998_ASM','NOT SPECIFIED',(#568));
#570=PRODUCT_DEFINITION_FORMATION_WITH_SPECIFIED_SOURCE('1','LAST_VERSION',#569,
.MADE.);
#572=PRODUCT_CATEGORY('part','');
#573=PRODUCT_RELATED_PRODUCT_CATEGORY('assembly','',(#541,#569));
#574=PRODUCT_CATEGORY_RELATIONSHIP('','',#572,#573);
#575=PRODUCT_CATEGORY('part','');
#576=PRODUCT_RELATED_PRODUCT_CATEGORY('detail','',(#283,#483));
#577=PRODUCT_CATEGORY_RELATIONSHIP('','',#575,#576);
#578=SECURITY_CLASSIFICATION_LEVEL('unclassified');
#579=SECURITY_CLASSIFICATION('','',#578);
#580=CC_DESIGN_SECURITY_CLASSIFICATION(#579,(#284,#484,#542,#570,#291,#488,#501,
#514,#547));
#581=APPROVAL_STATUS('approved');
#582=APPROVAL(#581,'');
#583=CC_DESIGN_APPROVAL(#582,(#579,#284,#484,#542,#570,#285,#485,#543,#571));
#584=CALENDAR_DATE(116,23,3);
#585=COORDINATED_UNIVERSAL_TIME_OFFSET(5,0,.BEHIND.);
#586=LOCAL_TIME(9,22,1.E1,#585);
#587=DATE_AND_TIME(#584,#586);
#588=APPROVAL_DATE_TIME(#587,#582);
#589=DATE_TIME_ROLE('creation_date');
#590=CC_DESIGN_DATE_AND_TIME_ASSIGNMENT(#587,#589,(#285,#485,#543,#571));
#591=DATE_TIME_ROLE('classification_date');
#592=CC_DESIGN_DATE_AND_TIME_ASSIGNMENT(#587,#591,(#579));
#593=PERSON('UNSPECIFIED','UNSPECIFIED',$,$,$,$);
#594=ORGANIZATION('UNSPECIFIED','UNSPECIFIED','UNSPECIFIED');
#595=PERSON_AND_ORGANIZATION(#593,#594);
#596=APPROVAL_ROLE('approver');
#597=APPROVAL_PERSON_ORGANIZATION(#595,#582,#596);
#598=PERSON_AND_ORGANIZATION_ROLE('creator');
#599=CC_DESIGN_PERSON_AND_ORGANIZATION_ASSIGNMENT(#595,#598,(#284,#484,#542,
#570,#285,#485,#543,#571));
#600=PERSON_AND_ORGANIZATION_ROLE('design_supplier');
#601=CC_DESIGN_PERSON_AND_ORGANIZATION_ASSIGNMENT(#595,#600,(#284,#484,#542,
#570));
#602=PERSON_AND_ORGANIZATION_ROLE('classification_officer');
#603=CC_DESIGN_PERSON_AND_ORGANIZATION_ASSIGNMENT(#595,#602,(#579));
#604=PERSON_AND_ORGANIZATION_ROLE('design_owner');
#605=CC_DESIGN_PERSON_AND_ORGANIZATION_ASSIGNMENT(#595,#604,(#541,#569,#283,
#483));
#5=CIRCLE('',#4,9.35E-2);
#10=CIRCLE('',#9,9.35E-2);
#15=CIRCLE('',#14,9.35E-2);
#24=CIRCLE('',#23,9.35E-2);
#33=CIRCLE('',#32,3.1E-2);
#38=CIRCLE('',#37,3.1E-2);
#43=CIRCLE('',#42,3.1E-2);
#52=CIRCLE('',#51,3.1E-2);
#65=CIRCLE('',#64,4.65E-2);
#74=CIRCLE('',#73,4.65E-2);
#79=CIRCLE('',#78,4.65E-2);
#88=CIRCLE('',#87,4.65E-2);
#122=EDGE_CURVE('',#104,#116,#5,.T.);
#124=EDGE_CURVE('',#104,#116,#10,.T.);
#128=EDGE_CURVE('',#95,#107,#88,.T.);
#130=EDGE_CURVE('',#95,#107,#79,.T.);
#140=EDGE_CURVE('',#103,#104,#19,.T.);
#143=EDGE_CURVE('',#115,#116,#28,.T.);
#145=EDGE_CURVE('',#103,#115,#15,.T.);
#156=EDGE_CURVE('',#103,#115,#24,.T.);
#172=EDGE_CURVE('',#100,#112,#33,.T.);
#174=EDGE_CURVE('',#100,#112,#38,.T.);
#184=EDGE_CURVE('',#98,#100,#47,.T.);
#187=EDGE_CURVE('',#110,#112,#56,.T.);
#189=EDGE_CURVE('',#98,#110,#43,.T.);
#200=EDGE_CURVE('',#98,#110,#52,.T.);
#212=EDGE_CURVE('',#96,#98,#60,.T.);
#214=EDGE_CURVE('',#96,#108,#65,.T.);
#216=EDGE_CURVE('',#108,#110,#69,.T.);
#230=EDGE_CURVE('',#96,#108,#74,.T.);
#240=EDGE_CURVE('',#95,#96,#83,.T.);
#243=EDGE_CURVE('',#107,#108,#92,.T.);
#264=(LENGTH_UNIT()NAMED_UNIT(*)SI_UNIT(.MILLI.,.METRE.));
#268=(NAMED_UNIT(*)PLANE_ANGLE_UNIT()SI_UNIT($,.RADIAN.));
#271=(NAMED_UNIT(*)SI_UNIT($,.STERADIAN.)SOLID_ANGLE_UNIT());
#277=AXIS2_PLACEMENT_3D('',#274,#275,#276);
#278=ADVANCED_BREP_SHAPE_REPRESENTATION('',(#277,#262),#273);
#285=PRODUCT_DEFINITION('design','',#284,#281);
#286=PRODUCT_DEFINITION_SHAPE('','SHAPE FOR 156486.',#285);
#287=SHAPE_DEFINITION_REPRESENTATION(#286,#278);
#288=SHAPE_DEFINITION_REPRESENTATION(#289,#290);
#289=PRODUCT_DEFINITION_SHAPE('','SHAPE FOR 17748_ASM.',#543);
#290=SHAPE_REPRESENTATION('',(#301,#296,#498,#493,#511,#506,#524,#519,#538),
#534);
#291=NEXT_ASSEMBLY_USAGE_OCCURRENCE('0','Next assembly relationship','156486',
#543,#285,$);
#292=PRODUCT_DEFINITION_SHAPE('Placement #0',
'Placement of 156486 with respect to 17748_ASM',#291);
#301=AXIS2_PLACEMENT_3D('',#298,#299,#300);
#308=CIRCLE('',#307,4.35E-2);
#313=CIRCLE('',#312,4.35E-2);
#318=CIRCLE('',#317,2.95E-2);
#323=CIRCLE('',#322,2.95E-2);
#336=CIRCLE('',#335,4.35E-2);
#341=CIRCLE('',#340,4.35E-2);
#346=CIRCLE('',#345,2.95E-2);
#351=CIRCLE('',#350,2.95E-2);
#381=EDGE_CURVE('',#362,#363,#308,.T.);
#383=EDGE_CURVE('',#363,#362,#313,.T.);
#387=EDGE_CURVE('',#366,#367,#318,.T.);
#389=EDGE_CURVE('',#367,#366,#323,.T.);
#400=EDGE_CURVE('',#362,#370,#327,.T.);
#402=EDGE_CURVE('',#370,#371,#336,.T.);
#404=EDGE_CURVE('',#363,#371,#331,.T.);
#416=EDGE_CURVE('',#371,#370,#341,.T.);
#431=EDGE_CURVE('',#374,#375,#346,.T.);
#433=EDGE_CURVE('',#375,#374,#351,.T.);
#444=EDGE_CURVE('',#366,#374,#355,.T.);
#447=EDGE_CURVE('',#367,#375,#359,.T.);
#467=(LENGTH_UNIT()NAMED_UNIT(*)SI_UNIT(.MILLI.,.METRE.));
#471=(NAMED_UNIT(*)PLANE_ANGLE_UNIT()SI_UNIT($,.RADIAN.));
#474=(NAMED_UNIT(*)SI_UNIT($,.STERADIAN.)SOLID_ANGLE_UNIT());
#480=AXIS2_PLACEMENT_3D('',#477,#478,#479);
#481=ADVANCED_BREP_SHAPE_REPRESENTATION('',(#480,#465),#476);
#485=PRODUCT_DEFINITION('design','',#484,#281);
#486=PRODUCT_DEFINITION_SHAPE('','SHAPE FOR 39681.',#485);
#487=SHAPE_DEFINITION_REPRESENTATION(#486,#481);
#488=NEXT_ASSEMBLY_USAGE_OCCURRENCE('1','Next assembly relationship','39681',
#543,#485,$);
#489=PRODUCT_DEFINITION_SHAPE('Placement #1',
'Placement of 39681 with respect to 17748_ASM',#488);
#498=AXIS2_PLACEMENT_3D('',#495,#496,#497);
#501=NEXT_ASSEMBLY_USAGE_OCCURRENCE('2','Next assembly relationship','39681',
#543,#485,$);
#502=PRODUCT_DEFINITION_SHAPE('Placement #2',
'Placement of 39681 with respect to 17748_ASM',#501);
#511=AXIS2_PLACEMENT_3D('',#508,#509,#510);
#514=NEXT_ASSEMBLY_USAGE_OCCURRENCE('3','Next assembly relationship','39681',
#543,#485,$);
#515=PRODUCT_DEFINITION_SHAPE('Placement #3',
'Placement of 39681 with respect to 17748_ASM',#514);
#524=AXIS2_PLACEMENT_3D('',#521,#522,#523);
#527=(LENGTH_UNIT()NAMED_UNIT(*)SI_UNIT(.MILLI.,.METRE.));
#529=(NAMED_UNIT(*)PLANE_ANGLE_UNIT()SI_UNIT($,.RADIAN.));
#532=(NAMED_UNIT(*)SI_UNIT($,.STERADIAN.)SOLID_ANGLE_UNIT());
#538=AXIS2_PLACEMENT_3D('',#535,#536,#537);
#543=PRODUCT_DEFINITION('design','',#542,#539);
#544=SHAPE_DEFINITION_REPRESENTATION(#545,#546);
#545=PRODUCT_DEFINITION_SHAPE('','SHAPE FOR 193998_ASM.',#571);
#546=SHAPE_REPRESENTATION('',(#552,#567),#563);
#547=NEXT_ASSEMBLY_USAGE_OCCURRENCE('4','Next assembly relationship','17748',
#571,#543,$);
#548=PRODUCT_DEFINITION_SHAPE('Placement #4',
'Placement of 17748_ASM with respect to 193998_ASM',#547);
#556=(LENGTH_UNIT()NAMED_UNIT(*)SI_UNIT(.MILLI.,.METRE.));
#558=(NAMED_UNIT(*)PLANE_ANGLE_UNIT()SI_UNIT($,.RADIAN.));
#561=(NAMED_UNIT(*)SI_UNIT($,.STERADIAN.)SOLID_ANGLE_UNIT());
#567=AXIS2_PLACEMENT_3D('',#564,#565,#566);
#571=PRODUCT_DEFINITION('design','',#570,#539);
ENDSEC;
END-ISO-10303-21;
