ISO-10303-21;
HEADER;
FILE_DESCRIPTION((''),'2;1');
FILE_NAME('193336_ASM','2016-02-17T',('pdmadmin'),(''),
'PRO/ENGINEER BY PARAMETRIC TECHNOLOGY CORPORATION, 2013230',
'PRO/ENGINEER BY PARAMETRIC TECHNOLOGY CORPORATION, 2013230','');
FILE_SCHEMA(('CONFIG_CONTROL_DESIGN'));
ENDSEC;
DATA;
#1=CARTESIAN_POINT('',(0.E0,0.E0,0.E0));
#2=DIRECTION('',(0.E0,0.E0,1.E0));
#3=DIRECTION('',(0.E0,-1.E0,0.E0));
#4=AXIS2_PLACEMENT_3D('',#1,#2,#3);
#6=CARTESIAN_POINT('',(0.E0,0.E0,0.E0));
#7=DIRECTION('',(0.E0,0.E0,1.E0));
#8=DIRECTION('',(0.E0,1.E0,0.E0));
#9=AXIS2_PLACEMENT_3D('',#6,#7,#8);
#11=CARTESIAN_POINT('',(0.E0,0.E0,0.E0));
#12=DIRECTION('',(0.E0,0.E0,-1.E0));
#13=DIRECTION('',(0.E0,-1.E0,0.E0));
#14=AXIS2_PLACEMENT_3D('',#11,#12,#13);
#16=CARTESIAN_POINT('',(0.E0,0.E0,0.E0));
#17=DIRECTION('',(0.E0,0.E0,-1.E0));
#18=DIRECTION('',(0.E0,1.E0,0.E0));
#19=AXIS2_PLACEMENT_3D('',#16,#17,#18);
#21=DIRECTION('',(0.E0,0.E0,1.E0));
#22=VECTOR('',#21,1.E0);
#23=CARTESIAN_POINT('',(0.E0,-4.35E-2,0.E0));
#24=LINE('',#23,#22);
#25=DIRECTION('',(0.E0,0.E0,1.E0));
#26=VECTOR('',#25,1.E0);
#27=CARTESIAN_POINT('',(0.E0,4.35E-2,0.E0));
#28=LINE('',#27,#26);
#29=CARTESIAN_POINT('',(0.E0,0.E0,1.E0));
#30=DIRECTION('',(0.E0,0.E0,1.E0));
#31=DIRECTION('',(0.E0,-1.E0,0.E0));
#32=AXIS2_PLACEMENT_3D('',#29,#30,#31);
#34=CARTESIAN_POINT('',(0.E0,0.E0,1.E0));
#35=DIRECTION('',(0.E0,0.E0,1.E0));
#36=DIRECTION('',(0.E0,1.E0,0.E0));
#37=AXIS2_PLACEMENT_3D('',#34,#35,#36);
#39=CARTESIAN_POINT('',(0.E0,0.E0,1.E0));
#40=DIRECTION('',(0.E0,0.E0,-1.E0));
#41=DIRECTION('',(0.E0,-1.E0,0.E0));
#42=AXIS2_PLACEMENT_3D('',#39,#40,#41);
#44=CARTESIAN_POINT('',(0.E0,0.E0,1.E0));
#45=DIRECTION('',(0.E0,0.E0,-1.E0));
#46=DIRECTION('',(0.E0,1.E0,0.E0));
#47=AXIS2_PLACEMENT_3D('',#44,#45,#46);
#49=DIRECTION('',(0.E0,0.E0,1.E0));
#50=VECTOR('',#49,1.E0);
#51=CARTESIAN_POINT('',(0.E0,-2.95E-2,0.E0));
#52=LINE('',#51,#50);
#53=DIRECTION('',(0.E0,0.E0,1.E0));
#54=VECTOR('',#53,1.E0);
#55=CARTESIAN_POINT('',(0.E0,2.95E-2,0.E0));
#56=LINE('',#55,#54);
#57=CARTESIAN_POINT('',(0.E0,-4.35E-2,0.E0));
#58=CARTESIAN_POINT('',(0.E0,4.35E-2,0.E0));
#59=VERTEX_POINT('',#57);
#60=VERTEX_POINT('',#58);
#61=CARTESIAN_POINT('',(0.E0,-2.95E-2,0.E0));
#62=CARTESIAN_POINT('',(0.E0,2.95E-2,0.E0));
#63=VERTEX_POINT('',#61);
#64=VERTEX_POINT('',#62);
#65=CARTESIAN_POINT('',(0.E0,-4.35E-2,1.E0));
#66=CARTESIAN_POINT('',(0.E0,4.35E-2,1.E0));
#67=VERTEX_POINT('',#65);
#68=VERTEX_POINT('',#66);
#69=CARTESIAN_POINT('',(0.E0,-2.95E-2,1.E0));
#70=CARTESIAN_POINT('',(0.E0,2.95E-2,1.E0));
#71=VERTEX_POINT('',#69);
#72=VERTEX_POINT('',#70);
#73=CARTESIAN_POINT('',(0.E0,0.E0,0.E0));
#74=DIRECTION('',(0.E0,0.E0,1.E0));
#75=DIRECTION('',(0.E0,-1.E0,0.E0));
#76=AXIS2_PLACEMENT_3D('',#73,#74,#75);
#77=PLANE('',#76);
#79=ORIENTED_EDGE('',*,*,#78,.T.);
#81=ORIENTED_EDGE('',*,*,#80,.T.);
#82=EDGE_LOOP('',(#79,#81));
#83=FACE_OUTER_BOUND('',#82,.F.);
#85=ORIENTED_EDGE('',*,*,#84,.T.);
#87=ORIENTED_EDGE('',*,*,#86,.T.);
#88=EDGE_LOOP('',(#85,#87));
#89=FACE_BOUND('',#88,.F.);
#90=ADVANCED_FACE('',(#83,#89),#77,.F.);
#91=CARTESIAN_POINT('',(0.E0,0.E0,0.E0));
#92=DIRECTION('',(0.E0,0.E0,1.E0));
#93=DIRECTION('',(0.E0,-1.E0,0.E0));
#94=AXIS2_PLACEMENT_3D('',#91,#92,#93);
#95=CYLINDRICAL_SURFACE('',#94,4.35E-2);
#96=ORIENTED_EDGE('',*,*,#78,.F.);
#98=ORIENTED_EDGE('',*,*,#97,.T.);
#100=ORIENTED_EDGE('',*,*,#99,.T.);
#102=ORIENTED_EDGE('',*,*,#101,.F.);
#103=EDGE_LOOP('',(#96,#98,#100,#102));
#104=FACE_OUTER_BOUND('',#103,.F.);
#105=ADVANCED_FACE('',(#104),#95,.T.);
#106=CARTESIAN_POINT('',(0.E0,0.E0,0.E0));
#107=DIRECTION('',(0.E0,0.E0,1.E0));
#108=DIRECTION('',(0.E0,-1.E0,0.E0));
#109=AXIS2_PLACEMENT_3D('',#106,#107,#108);
#110=CYLINDRICAL_SURFACE('',#109,4.35E-2);
#111=ORIENTED_EDGE('',*,*,#80,.F.);
#112=ORIENTED_EDGE('',*,*,#101,.T.);
#114=ORIENTED_EDGE('',*,*,#113,.T.);
#115=ORIENTED_EDGE('',*,*,#97,.F.);
#116=EDGE_LOOP('',(#111,#112,#114,#115));
#117=FACE_OUTER_BOUND('',#116,.F.);
#118=ADVANCED_FACE('',(#117),#110,.T.);
#119=CARTESIAN_POINT('',(0.E0,0.E0,1.E0));
#120=DIRECTION('',(0.E0,0.E0,1.E0));
#121=DIRECTION('',(0.E0,-1.E0,0.E0));
#122=AXIS2_PLACEMENT_3D('',#119,#120,#121);
#123=PLANE('',#122);
#124=ORIENTED_EDGE('',*,*,#99,.F.);
#125=ORIENTED_EDGE('',*,*,#113,.F.);
#126=EDGE_LOOP('',(#124,#125));
#127=FACE_OUTER_BOUND('',#126,.F.);
#129=ORIENTED_EDGE('',*,*,#128,.F.);
#131=ORIENTED_EDGE('',*,*,#130,.F.);
#132=EDGE_LOOP('',(#129,#131));
#133=FACE_BOUND('',#132,.F.);
#134=ADVANCED_FACE('',(#127,#133),#123,.T.);
#135=CARTESIAN_POINT('',(0.E0,0.E0,0.E0));
#136=DIRECTION('',(0.E0,0.E0,1.E0));
#137=DIRECTION('',(0.E0,-1.E0,0.E0));
#138=AXIS2_PLACEMENT_3D('',#135,#136,#137);
#139=CYLINDRICAL_SURFACE('',#138,2.95E-2);
#140=ORIENTED_EDGE('',*,*,#84,.F.);
#142=ORIENTED_EDGE('',*,*,#141,.T.);
#143=ORIENTED_EDGE('',*,*,#128,.T.);
#145=ORIENTED_EDGE('',*,*,#144,.F.);
#146=EDGE_LOOP('',(#140,#142,#143,#145));
#147=FACE_OUTER_BOUND('',#146,.F.);
#148=ADVANCED_FACE('',(#147),#139,.F.);
#149=CARTESIAN_POINT('',(0.E0,0.E0,0.E0));
#150=DIRECTION('',(0.E0,0.E0,1.E0));
#151=DIRECTION('',(0.E0,-1.E0,0.E0));
#152=AXIS2_PLACEMENT_3D('',#149,#150,#151);
#153=CYLINDRICAL_SURFACE('',#152,2.95E-2);
#154=ORIENTED_EDGE('',*,*,#86,.F.);
#155=ORIENTED_EDGE('',*,*,#144,.T.);
#156=ORIENTED_EDGE('',*,*,#130,.T.);
#157=ORIENTED_EDGE('',*,*,#141,.F.);
#158=EDGE_LOOP('',(#154,#155,#156,#157));
#159=FACE_OUTER_BOUND('',#158,.F.);
#160=ADVANCED_FACE('',(#159),#153,.F.);
#161=CLOSED_SHELL('',(#90,#105,#118,#134,#148,#160));
#162=MANIFOLD_SOLID_BREP('',#161);
#163=DIMENSIONAL_EXPONENTS(1.E0,0.E0,0.E0,0.E0,0.E0,0.E0,0.E0);
#165=LENGTH_MEASURE_WITH_UNIT(LENGTH_MEASURE(2.54E1),#164);
#166=(CONVERSION_BASED_UNIT('INCH',#165)LENGTH_UNIT()NAMED_UNIT(#163));
#167=DIMENSIONAL_EXPONENTS(0.E0,0.E0,0.E0,0.E0,0.E0,0.E0,0.E0);
#169=PLANE_ANGLE_MEASURE_WITH_UNIT(PLANE_ANGLE_MEASURE(1.745329251994E-2),#168);
#170=(CONVERSION_BASED_UNIT('DEGREE',#169)NAMED_UNIT(*)PLANE_ANGLE_UNIT());
#172=UNCERTAINTY_MEASURE_WITH_UNIT(LENGTH_MEASURE(1.007500268280E-4),#166,
'closure',
'Maximum model space distance between geometric entities at asserted connectivities');
#173=(GEOMETRIC_REPRESENTATION_CONTEXT(3)GLOBAL_UNCERTAINTY_ASSIGNED_CONTEXT((
#172))GLOBAL_UNIT_ASSIGNED_CONTEXT((#166,#170,#171))REPRESENTATION_CONTEXT
('ID1','3'));
#174=CARTESIAN_POINT('',(0.E0,0.E0,0.E0));
#175=DIRECTION('',(0.E0,0.E0,1.E0));
#176=DIRECTION('',(1.E0,0.E0,0.E0));
#179=APPLICATION_CONTEXT(
'CONFIGURATION CONTROLLED 3D DESIGNS OF MECHANICAL PARTS AND ASSEMBLIES');
#180=APPLICATION_PROTOCOL_DEFINITION('international standard',
'config_control_design',1994,#179);
#181=DESIGN_CONTEXT('',#179,'design');
#182=MECHANICAL_CONTEXT('',#179,'mechanical');
#183=PRODUCT('39681','39681','NOT SPECIFIED',(#182));
#184=PRODUCT_DEFINITION_FORMATION_WITH_SPECIFIED_SOURCE('1','LAST_VERSION',#183,
.MADE.);
#193=CARTESIAN_POINT('',(0.E0,0.E0,0.E0));
#194=DIRECTION('',(0.E0,0.E0,1.E0));
#195=DIRECTION('',(1.E0,0.E0,0.E0));
#196=AXIS2_PLACEMENT_3D('',#193,#194,#195);
#197=ITEM_DEFINED_TRANSFORMATION('','',#177,#196);
#198=CARTESIAN_POINT('',(0.E0,0.E0,0.E0));
#199=DIRECTION('',(0.E0,0.E0,1.E0));
#200=DIRECTION('',(1.E0,0.E0,0.E0));
#202=(REPRESENTATION_RELATIONSHIP('','',#178,#190)REPRESENTATION_RELATIONSHIP_WITH_TRANSFORMATION(#197)SHAPE_REPRESENTATION_RELATIONSHIP());
#203=CONTEXT_DEPENDENT_SHAPE_REPRESENTATION(#202,#192);
#206=CARTESIAN_POINT('',(0.E0,0.E0,2.54E1));
#207=DIRECTION('',(0.E0,0.E0,1.E0));
#208=DIRECTION('',(1.E0,0.E0,0.E0));
#209=AXIS2_PLACEMENT_3D('',#206,#207,#208);
#210=ITEM_DEFINED_TRANSFORMATION('','',#177,#209);
#211=CARTESIAN_POINT('',(0.E0,0.E0,0.E0));
#212=DIRECTION('',(0.E0,0.E0,1.E0));
#213=DIRECTION('',(1.E0,0.E0,0.E0));
#215=(REPRESENTATION_RELATIONSHIP('','',#178,#190)REPRESENTATION_RELATIONSHIP_WITH_TRANSFORMATION(#210)SHAPE_REPRESENTATION_RELATIONSHIP());
#216=CONTEXT_DEPENDENT_SHAPE_REPRESENTATION(#215,#205);
#218=DIMENSIONAL_EXPONENTS(0.E0,0.E0,0.E0,0.E0,0.E0,0.E0,0.E0);
#220=PLANE_ANGLE_MEASURE_WITH_UNIT(PLANE_ANGLE_MEASURE(1.745329251994E-2),#219);
#221=(CONVERSION_BASED_UNIT('DEGREE',#220)NAMED_UNIT(*)PLANE_ANGLE_UNIT());
#223=UNCERTAINTY_MEASURE_WITH_UNIT(LENGTH_MEASURE(5.089399968277E-3),#217,
'closure',
'Maximum model space distance between geometric entities at asserted connectivities');
#224=(GEOMETRIC_REPRESENTATION_CONTEXT(3)GLOBAL_UNCERTAINTY_ASSIGNED_CONTEXT((
#223))GLOBAL_UNIT_ASSIGNED_CONTEXT((#217,#221,#222))REPRESENTATION_CONTEXT
('ID2','3'));
#225=CARTESIAN_POINT('',(0.E0,0.E0,0.E0));
#226=DIRECTION('',(0.E0,0.E0,1.E0));
#227=DIRECTION('',(1.E0,0.E0,0.E0));
#229=MECHANICAL_CONTEXT('',#179,'mechanical');
#230=PRODUCT('56088_ASM','56088_ASM','NOT SPECIFIED',(#229));
#231=PRODUCT_DEFINITION_FORMATION_WITH_SPECIFIED_SOURCE('1','LAST_VERSION',#230,
.MADE.);
#238=CARTESIAN_POINT('',(0.E0,0.E0,0.E0));
#239=DIRECTION('',(0.E0,0.E0,1.E0));
#240=DIRECTION('',(1.E0,0.E0,0.E0));
#241=AXIS2_PLACEMENT_3D('',#238,#239,#240);
#242=ITEM_DEFINED_TRANSFORMATION('','',#201,#241);
#243=(REPRESENTATION_RELATIONSHIP('','',#190,#235)REPRESENTATION_RELATIONSHIP_WITH_TRANSFORMATION(#242)SHAPE_REPRESENTATION_RELATIONSHIP());
#244=CONTEXT_DEPENDENT_SHAPE_REPRESENTATION(#243,#237);
#246=DIMENSIONAL_EXPONENTS(0.E0,0.E0,0.E0,0.E0,0.E0,0.E0,0.E0);
#248=PLANE_ANGLE_MEASURE_WITH_UNIT(PLANE_ANGLE_MEASURE(1.745329251994E-2),#247);
#249=(CONVERSION_BASED_UNIT('DEGREE',#248)NAMED_UNIT(*)PLANE_ANGLE_UNIT());
#251=UNCERTAINTY_MEASURE_WITH_UNIT(LENGTH_MEASURE(5.089399968277E-3),#245,
'closure',
'Maximum model space distance between geometric entities at asserted connectivities');
#252=(GEOMETRIC_REPRESENTATION_CONTEXT(3)GLOBAL_UNCERTAINTY_ASSIGNED_CONTEXT((
#251))GLOBAL_UNIT_ASSIGNED_CONTEXT((#245,#249,#250))REPRESENTATION_CONTEXT
('ID3','3'));
#253=CARTESIAN_POINT('',(0.E0,0.E0,0.E0));
#254=DIRECTION('',(0.E0,0.E0,1.E0));
#255=DIRECTION('',(1.E0,0.E0,0.E0));
#257=DESIGN_CONTEXT('',#179,'design');
#258=MECHANICAL_CONTEXT('',#179,'mechanical');
#259=PRODUCT('193336_ASM','193336_ASM','NOT SPECIFIED',(#258));
#260=PRODUCT_DEFINITION_FORMATION_WITH_SPECIFIED_SOURCE('1','LAST_VERSION',#259,
.MADE.);
#262=PRODUCT_CATEGORY('part','');
#263=PRODUCT_RELATED_PRODUCT_CATEGORY('assembly','',(#230,#259));
#264=PRODUCT_CATEGORY_RELATIONSHIP('','',#262,#263);
#265=PRODUCT_CATEGORY('part','');
#266=PRODUCT_RELATED_PRODUCT_CATEGORY('detail','',(#183));
#267=PRODUCT_CATEGORY_RELATIONSHIP('','',#265,#266);
#268=SECURITY_CLASSIFICATION_LEVEL('unclassified');
#269=SECURITY_CLASSIFICATION('','',#268);
#270=CC_DESIGN_SECURITY_CLASSIFICATION(#269,(#184,#231,#260,#191,#204,#236));
#271=APPROVAL_STATUS('approved');
#272=APPROVAL(#271,'');
#273=CC_DESIGN_APPROVAL(#272,(#269,#184,#231,#260,#185,#232,#261));
#274=CALENDAR_DATE(116,17,2);
#275=COORDINATED_UNIVERSAL_TIME_OFFSET(6,0,.BEHIND.);
#276=LOCAL_TIME(15,59,5.6E1,#275);
#277=DATE_AND_TIME(#274,#276);
#278=APPROVAL_DATE_TIME(#277,#272);
#279=DATE_TIME_ROLE('creation_date');
#280=CC_DESIGN_DATE_AND_TIME_ASSIGNMENT(#277,#279,(#185,#232,#261));
#281=DATE_TIME_ROLE('classification_date');
#282=CC_DESIGN_DATE_AND_TIME_ASSIGNMENT(#277,#281,(#269));
#283=PERSON('UNSPECIFIED','UNSPECIFIED',$,$,$,$);
#284=ORGANIZATION('UNSPECIFIED','UNSPECIFIED','UNSPECIFIED');
#285=PERSON_AND_ORGANIZATION(#283,#284);
#286=APPROVAL_ROLE('approver');
#287=APPROVAL_PERSON_ORGANIZATION(#285,#272,#286);
#288=PERSON_AND_ORGANIZATION_ROLE('creator');
#289=CC_DESIGN_PERSON_AND_ORGANIZATION_ASSIGNMENT(#285,#288,(#184,#231,#260,
#185,#232,#261));
#290=PERSON_AND_ORGANIZATION_ROLE('design_supplier');
#291=CC_DESIGN_PERSON_AND_ORGANIZATION_ASSIGNMENT(#285,#290,(#184,#231,#260));
#292=PERSON_AND_ORGANIZATION_ROLE('classification_officer');
#293=CC_DESIGN_PERSON_AND_ORGANIZATION_ASSIGNMENT(#285,#292,(#269));
#294=PERSON_AND_ORGANIZATION_ROLE('design_owner');
#295=CC_DESIGN_PERSON_AND_ORGANIZATION_ASSIGNMENT(#285,#294,(#230,#259,#183));
#5=CIRCLE('',#4,4.35E-2);
#10=CIRCLE('',#9,4.35E-2);
#15=CIRCLE('',#14,2.95E-2);
#20=CIRCLE('',#19,2.95E-2);
#33=CIRCLE('',#32,4.35E-2);
#38=CIRCLE('',#37,4.35E-2);
#43=CIRCLE('',#42,2.95E-2);
#48=CIRCLE('',#47,2.95E-2);
#78=EDGE_CURVE('',#59,#60,#5,.T.);
#80=EDGE_CURVE('',#60,#59,#10,.T.);
#84=EDGE_CURVE('',#63,#64,#15,.T.);
#86=EDGE_CURVE('',#64,#63,#20,.T.);
#97=EDGE_CURVE('',#59,#67,#24,.T.);
#99=EDGE_CURVE('',#67,#68,#33,.T.);
#101=EDGE_CURVE('',#60,#68,#28,.T.);
#113=EDGE_CURVE('',#68,#67,#38,.T.);
#128=EDGE_CURVE('',#71,#72,#43,.T.);
#130=EDGE_CURVE('',#72,#71,#48,.T.);
#141=EDGE_CURVE('',#63,#71,#52,.T.);
#144=EDGE_CURVE('',#64,#72,#56,.T.);
#164=(LENGTH_UNIT()NAMED_UNIT(*)SI_UNIT(.MILLI.,.METRE.));
#168=(NAMED_UNIT(*)PLANE_ANGLE_UNIT()SI_UNIT($,.RADIAN.));
#171=(NAMED_UNIT(*)SI_UNIT($,.STERADIAN.)SOLID_ANGLE_UNIT());
#177=AXIS2_PLACEMENT_3D('',#174,#175,#176);
#178=ADVANCED_BREP_SHAPE_REPRESENTATION('',(#177,#162),#173);
#185=PRODUCT_DEFINITION('design','',#184,#181);
#186=PRODUCT_DEFINITION_SHAPE('','SHAPE FOR 39681.',#185);
#187=SHAPE_DEFINITION_REPRESENTATION(#186,#178);
#188=SHAPE_DEFINITION_REPRESENTATION(#189,#190);
#189=PRODUCT_DEFINITION_SHAPE('','SHAPE FOR 56088_ASM.',#232);
#190=SHAPE_REPRESENTATION('',(#201,#196,#214,#209,#228),#224);
#191=NEXT_ASSEMBLY_USAGE_OCCURRENCE('0','Next assembly relationship','39681',
#232,#185,$);
#192=PRODUCT_DEFINITION_SHAPE('Placement #0',
'Placement of 39681 with respect to 56088_ASM',#191);
#201=AXIS2_PLACEMENT_3D('',#198,#199,#200);
#204=NEXT_ASSEMBLY_USAGE_OCCURRENCE('1','Next assembly relationship','39681',
#232,#185,$);
#205=PRODUCT_DEFINITION_SHAPE('Placement #1',
'Placement of 39681 with respect to 56088_ASM',#204);
#214=AXIS2_PLACEMENT_3D('',#211,#212,#213);
#217=(LENGTH_UNIT()NAMED_UNIT(*)SI_UNIT(.MILLI.,.METRE.));
#219=(NAMED_UNIT(*)PLANE_ANGLE_UNIT()SI_UNIT($,.RADIAN.));
#222=(NAMED_UNIT(*)SI_UNIT($,.STERADIAN.)SOLID_ANGLE_UNIT());
#228=AXIS2_PLACEMENT_3D('',#225,#226,#227);
#232=PRODUCT_DEFINITION('design','',#231,#181);
#233=SHAPE_DEFINITION_REPRESENTATION(#234,#235);
#234=PRODUCT_DEFINITION_SHAPE('','SHAPE FOR 193336_ASM.',#261);
#235=SHAPE_REPRESENTATION('',(#241,#256),#252);
#236=NEXT_ASSEMBLY_USAGE_OCCURRENCE('2','Next assembly relationship','56088',
#261,#232,$);
#237=PRODUCT_DEFINITION_SHAPE('Placement #2',
'Placement of 56088_ASM with respect to 193336_ASM',#236);
#245=(LENGTH_UNIT()NAMED_UNIT(*)SI_UNIT(.MILLI.,.METRE.));
#247=(NAMED_UNIT(*)PLANE_ANGLE_UNIT()SI_UNIT($,.RADIAN.));
#250=(NAMED_UNIT(*)SI_UNIT($,.STERADIAN.)SOLID_ANGLE_UNIT());
#256=AXIS2_PLACEMENT_3D('',#253,#254,#255);
#261=PRODUCT_DEFINITION('design','',#260,#257);
ENDSEC;
END-ISO-10303-21;
