ISO-10303-21;
HEADER;
FILE_DESCRIPTION((''),'2;1');
FILE_NAME('192442_ASM','2015-12-23T',('pdmadmin'),(''),
'PRO/ENGINEER BY PARAMETRIC TECHNOLOGY CORPORATION, 2013230',
'PRO/ENGINEER BY PARAMETRIC TECHNOLOGY CORPORATION, 2013230','');
FILE_SCHEMA(('CONFIG_CONTROL_DESIGN'));
ENDSEC;
DATA;
#2=DIRECTION('',(-1.E0,0.E0,0.E0));
#3=VECTOR('',#2,3.44E1);
#4=CARTESIAN_POINT('',(1.72E1,0.E0,-4.4425E2));
#5=LINE('',#4,#3);
#6=DIRECTION('',(0.E0,0.E0,-1.E0));
#7=VECTOR('',#6,8.885E2);
#8=CARTESIAN_POINT('',(1.72E1,0.E0,4.4425E2));
#9=LINE('',#8,#7);
#10=DIRECTION('',(1.E0,0.E0,0.E0));
#11=VECTOR('',#10,3.44E1);
#12=CARTESIAN_POINT('',(-1.72E1,0.E0,4.4425E2));
#13=LINE('',#12,#11);
#14=DIRECTION('',(0.E0,0.E0,1.E0));
#15=VECTOR('',#14,8.885E2);
#16=CARTESIAN_POINT('',(-1.72E1,0.E0,-4.4425E2));
#17=LINE('',#16,#15);
#18=DIRECTION('',(0.E0,-1.E0,0.E0));
#19=VECTOR('',#18,1.8E-1);
#20=CARTESIAN_POINT('',(1.72E1,0.E0,-4.4425E2));
#21=LINE('',#20,#19);
#22=DIRECTION('',(0.E0,-1.E0,0.E0));
#23=VECTOR('',#22,1.8E-1);
#24=CARTESIAN_POINT('',(-1.72E1,0.E0,-4.4425E2));
#25=LINE('',#24,#23);
#26=DIRECTION('',(0.E0,-1.E0,0.E0));
#27=VECTOR('',#26,1.8E-1);
#28=CARTESIAN_POINT('',(-1.72E1,0.E0,4.4425E2));
#29=LINE('',#28,#27);
#30=DIRECTION('',(0.E0,-1.E0,0.E0));
#31=VECTOR('',#30,1.8E-1);
#32=CARTESIAN_POINT('',(1.72E1,0.E0,4.4425E2));
#33=LINE('',#32,#31);
#34=DIRECTION('',(-1.E0,0.E0,0.E0));
#35=VECTOR('',#34,3.44E1);
#36=CARTESIAN_POINT('',(1.72E1,-1.8E-1,-4.4425E2));
#37=LINE('',#36,#35);
#38=DIRECTION('',(0.E0,0.E0,1.E0));
#39=VECTOR('',#38,8.885E2);
#40=CARTESIAN_POINT('',(-1.72E1,-1.8E-1,-4.4425E2));
#41=LINE('',#40,#39);
#42=DIRECTION('',(1.E0,0.E0,0.E0));
#43=VECTOR('',#42,3.44E1);
#44=CARTESIAN_POINT('',(-1.72E1,-1.8E-1,4.4425E2));
#45=LINE('',#44,#43);
#46=DIRECTION('',(0.E0,0.E0,-1.E0));
#47=VECTOR('',#46,8.885E2);
#48=CARTESIAN_POINT('',(1.72E1,-1.8E-1,4.4425E2));
#49=LINE('',#48,#47);
#50=CARTESIAN_POINT('',(1.72E1,0.E0,4.4425E2));
#51=CARTESIAN_POINT('',(1.72E1,0.E0,-4.4425E2));
#52=VERTEX_POINT('',#50);
#53=VERTEX_POINT('',#51);
#54=CARTESIAN_POINT('',(-1.72E1,0.E0,-4.4425E2));
#55=CARTESIAN_POINT('',(-1.72E1,0.E0,4.4425E2));
#56=VERTEX_POINT('',#54);
#57=VERTEX_POINT('',#55);
#58=CARTESIAN_POINT('',(1.72E1,-1.8E-1,4.4425E2));
#59=CARTESIAN_POINT('',(1.72E1,-1.8E-1,-4.4425E2));
#60=VERTEX_POINT('',#58);
#61=VERTEX_POINT('',#59);
#62=CARTESIAN_POINT('',(-1.72E1,-1.8E-1,-4.4425E2));
#63=CARTESIAN_POINT('',(-1.72E1,-1.8E-1,4.4425E2));
#64=VERTEX_POINT('',#62);
#65=VERTEX_POINT('',#63);
#66=CARTESIAN_POINT('',(0.E0,0.E0,0.E0));
#67=DIRECTION('',(0.E0,1.E0,0.E0));
#68=DIRECTION('',(1.E0,0.E0,0.E0));
#69=AXIS2_PLACEMENT_3D('',#66,#67,#68);
#70=PLANE('',#69);
#72=ORIENTED_EDGE('',*,*,#71,.F.);
#74=ORIENTED_EDGE('',*,*,#73,.F.);
#76=ORIENTED_EDGE('',*,*,#75,.F.);
#78=ORIENTED_EDGE('',*,*,#77,.F.);
#79=EDGE_LOOP('',(#72,#74,#76,#78));
#80=FACE_OUTER_BOUND('',#79,.F.);
#81=ADVANCED_FACE('',(#80),#70,.T.);
#82=CARTESIAN_POINT('',(1.72E1,0.E0,-4.4425E2));
#83=DIRECTION('',(0.E0,0.E0,-1.E0));
#84=DIRECTION('',(-1.E0,0.E0,0.E0));
#85=AXIS2_PLACEMENT_3D('',#82,#83,#84);
#86=PLANE('',#85);
#87=ORIENTED_EDGE('',*,*,#71,.T.);
#89=ORIENTED_EDGE('',*,*,#88,.T.);
#91=ORIENTED_EDGE('',*,*,#90,.F.);
#93=ORIENTED_EDGE('',*,*,#92,.F.);
#94=EDGE_LOOP('',(#87,#89,#91,#93));
#95=FACE_OUTER_BOUND('',#94,.F.);
#96=ADVANCED_FACE('',(#95),#86,.T.);
#97=CARTESIAN_POINT('',(-1.72E1,0.E0,-4.4425E2));
#98=DIRECTION('',(-1.E0,0.E0,0.E0));
#99=DIRECTION('',(0.E0,0.E0,1.E0));
#100=AXIS2_PLACEMENT_3D('',#97,#98,#99);
#101=PLANE('',#100);
#102=ORIENTED_EDGE('',*,*,#77,.T.);
#104=ORIENTED_EDGE('',*,*,#103,.T.);
#106=ORIENTED_EDGE('',*,*,#105,.F.);
#107=ORIENTED_EDGE('',*,*,#88,.F.);
#108=EDGE_LOOP('',(#102,#104,#106,#107));
#109=FACE_OUTER_BOUND('',#108,.F.);
#110=ADVANCED_FACE('',(#109),#101,.T.);
#111=CARTESIAN_POINT('',(-1.72E1,0.E0,4.4425E2));
#112=DIRECTION('',(0.E0,0.E0,1.E0));
#113=DIRECTION('',(1.E0,0.E0,0.E0));
#114=AXIS2_PLACEMENT_3D('',#111,#112,#113);
#115=PLANE('',#114);
#116=ORIENTED_EDGE('',*,*,#75,.T.);
#118=ORIENTED_EDGE('',*,*,#117,.T.);
#120=ORIENTED_EDGE('',*,*,#119,.F.);
#121=ORIENTED_EDGE('',*,*,#103,.F.);
#122=EDGE_LOOP('',(#116,#118,#120,#121));
#123=FACE_OUTER_BOUND('',#122,.F.);
#124=ADVANCED_FACE('',(#123),#115,.T.);
#125=CARTESIAN_POINT('',(1.72E1,0.E0,4.4425E2));
#126=DIRECTION('',(1.E0,0.E0,0.E0));
#127=DIRECTION('',(0.E0,0.E0,-1.E0));
#128=AXIS2_PLACEMENT_3D('',#125,#126,#127);
#129=PLANE('',#128);
#130=ORIENTED_EDGE('',*,*,#73,.T.);
#131=ORIENTED_EDGE('',*,*,#92,.T.);
#133=ORIENTED_EDGE('',*,*,#132,.F.);
#134=ORIENTED_EDGE('',*,*,#117,.F.);
#135=EDGE_LOOP('',(#130,#131,#133,#134));
#136=FACE_OUTER_BOUND('',#135,.F.);
#137=ADVANCED_FACE('',(#136),#129,.T.);
#138=CARTESIAN_POINT('',(0.E0,-1.8E-1,0.E0));
#139=DIRECTION('',(0.E0,1.E0,0.E0));
#140=DIRECTION('',(1.E0,0.E0,0.E0));
#141=AXIS2_PLACEMENT_3D('',#138,#139,#140);
#142=PLANE('',#141);
#143=ORIENTED_EDGE('',*,*,#90,.T.);
#144=ORIENTED_EDGE('',*,*,#105,.T.);
#145=ORIENTED_EDGE('',*,*,#119,.T.);
#146=ORIENTED_EDGE('',*,*,#132,.T.);
#147=EDGE_LOOP('',(#143,#144,#145,#146));
#148=FACE_OUTER_BOUND('',#147,.F.);
#149=ADVANCED_FACE('',(#148),#142,.F.);
#150=CLOSED_SHELL('',(#81,#96,#110,#124,#137,#149));
#151=MANIFOLD_SOLID_BREP('',#150);
#153=DIMENSIONAL_EXPONENTS(0.E0,0.E0,0.E0,0.E0,0.E0,0.E0,0.E0);
#155=PLANE_ANGLE_MEASURE_WITH_UNIT(PLANE_ANGLE_MEASURE(1.745329251994E-2),#154);
#156=(CONVERSION_BASED_UNIT('DEGREE',#155)NAMED_UNIT(*)PLANE_ANGLE_UNIT());
#158=UNCERTAINTY_MEASURE_WITH_UNIT(LENGTH_MEASURE(3.E-3),#152,'closure',
'Maximum model space distance between geometric entities at asserted connectivities');
#159=(GEOMETRIC_REPRESENTATION_CONTEXT(3)GLOBAL_UNCERTAINTY_ASSIGNED_CONTEXT((
#158))GLOBAL_UNIT_ASSIGNED_CONTEXT((#152,#156,#157))REPRESENTATION_CONTEXT
('ID1','3'));
#160=CARTESIAN_POINT('',(0.E0,0.E0,0.E0));
#161=DIRECTION('',(0.E0,0.E0,1.E0));
#162=DIRECTION('',(1.E0,0.E0,0.E0));
#165=APPLICATION_CONTEXT(
'CONFIGURATION CONTROLLED 3D DESIGNS OF MECHANICAL PARTS AND ASSEMBLIES');
#166=APPLICATION_PROTOCOL_DEFINITION('international standard',
'config_control_design',1994,#165);
#167=DESIGN_CONTEXT('',#165,'design');
#168=MECHANICAL_CONTEXT('',#165,'mechanical');
#169=PRODUCT('152732','152732','NOT SPECIFIED',(#168));
#170=PRODUCT_DEFINITION_FORMATION_WITH_SPECIFIED_SOURCE('1','LAST_VERSION',#169,
.MADE.);
#179=CARTESIAN_POINT('',(0.E0,0.E0,0.E0));
#180=DIRECTION('',(0.E0,0.E0,1.E0));
#181=DIRECTION('',(1.E0,0.E0,0.E0));
#182=AXIS2_PLACEMENT_3D('',#179,#180,#181);
#183=ITEM_DEFINED_TRANSFORMATION('','',#163,#182);
#184=(REPRESENTATION_RELATIONSHIP('','',#164,#176)REPRESENTATION_RELATIONSHIP_WITH_TRANSFORMATION(#183)SHAPE_REPRESENTATION_RELATIONSHIP());
#185=CONTEXT_DEPENDENT_SHAPE_REPRESENTATION(#184,#178);
#187=DIMENSIONAL_EXPONENTS(0.E0,0.E0,0.E0,0.E0,0.E0,0.E0,0.E0);
#189=PLANE_ANGLE_MEASURE_WITH_UNIT(PLANE_ANGLE_MEASURE(1.745329251994E-2),#188);
#190=(CONVERSION_BASED_UNIT('DEGREE',#189)NAMED_UNIT(*)PLANE_ANGLE_UNIT());
#192=UNCERTAINTY_MEASURE_WITH_UNIT(LENGTH_MEASURE(8.891301335652E-2),#186,
'closure',
'Maximum model space distance between geometric entities at asserted connectivities');
#193=(GEOMETRIC_REPRESENTATION_CONTEXT(3)GLOBAL_UNCERTAINTY_ASSIGNED_CONTEXT((
#192))GLOBAL_UNIT_ASSIGNED_CONTEXT((#186,#190,#191))REPRESENTATION_CONTEXT
('ID2','3'));
#194=CARTESIAN_POINT('',(0.E0,0.E0,0.E0));
#195=DIRECTION('',(0.E0,0.E0,1.E0));
#196=DIRECTION('',(1.E0,0.E0,0.E0));
#198=MECHANICAL_CONTEXT('',#165,'mechanical');
#199=PRODUCT('192442_ASM','192442_ASM','NOT SPECIFIED',(#198));
#200=PRODUCT_DEFINITION_FORMATION_WITH_SPECIFIED_SOURCE('1','LAST_VERSION',#199,
.MADE.);
#202=PRODUCT_CATEGORY('part','');
#203=PRODUCT_RELATED_PRODUCT_CATEGORY('assembly','',(#199));
#204=PRODUCT_CATEGORY_RELATIONSHIP('','',#202,#203);
#205=PRODUCT_CATEGORY('part','');
#206=PRODUCT_RELATED_PRODUCT_CATEGORY('detail','',(#169));
#207=PRODUCT_CATEGORY_RELATIONSHIP('','',#205,#206);
#208=SECURITY_CLASSIFICATION_LEVEL('unclassified');
#209=SECURITY_CLASSIFICATION('','',#208);
#210=CC_DESIGN_SECURITY_CLASSIFICATION(#209,(#170,#200,#177));
#211=APPROVAL_STATUS('approved');
#212=APPROVAL(#211,'');
#213=CC_DESIGN_APPROVAL(#212,(#209,#170,#200,#171,#201));
#214=CALENDAR_DATE(115,23,12);
#215=COORDINATED_UNIVERSAL_TIME_OFFSET(6,0,.BEHIND.);
#216=LOCAL_TIME(11,0,5.7E1,#215);
#217=DATE_AND_TIME(#214,#216);
#218=APPROVAL_DATE_TIME(#217,#212);
#219=DATE_TIME_ROLE('creation_date');
#220=CC_DESIGN_DATE_AND_TIME_ASSIGNMENT(#217,#219,(#171,#201));
#221=DATE_TIME_ROLE('classification_date');
#222=CC_DESIGN_DATE_AND_TIME_ASSIGNMENT(#217,#221,(#209));
#223=PERSON('UNSPECIFIED','UNSPECIFIED',$,$,$,$);
#224=ORGANIZATION('UNSPECIFIED','UNSPECIFIED','UNSPECIFIED');
#225=PERSON_AND_ORGANIZATION(#223,#224);
#226=APPROVAL_ROLE('approver');
#227=APPROVAL_PERSON_ORGANIZATION(#225,#212,#226);
#228=PERSON_AND_ORGANIZATION_ROLE('creator');
#229=CC_DESIGN_PERSON_AND_ORGANIZATION_ASSIGNMENT(#225,#228,(#170,#200,#171,
#201));
#230=PERSON_AND_ORGANIZATION_ROLE('design_supplier');
#231=CC_DESIGN_PERSON_AND_ORGANIZATION_ASSIGNMENT(#225,#230,(#170,#200));
#232=PERSON_AND_ORGANIZATION_ROLE('classification_officer');
#233=CC_DESIGN_PERSON_AND_ORGANIZATION_ASSIGNMENT(#225,#232,(#209));
#234=PERSON_AND_ORGANIZATION_ROLE('design_owner');
#235=CC_DESIGN_PERSON_AND_ORGANIZATION_ASSIGNMENT(#225,#234,(#199,#169));
#71=EDGE_CURVE('',#53,#56,#5,.T.);
#73=EDGE_CURVE('',#52,#53,#9,.T.);
#75=EDGE_CURVE('',#57,#52,#13,.T.);
#77=EDGE_CURVE('',#56,#57,#17,.T.);
#88=EDGE_CURVE('',#56,#64,#25,.T.);
#90=EDGE_CURVE('',#61,#64,#37,.T.);
#92=EDGE_CURVE('',#53,#61,#21,.T.);
#103=EDGE_CURVE('',#57,#65,#29,.T.);
#105=EDGE_CURVE('',#64,#65,#41,.T.);
#117=EDGE_CURVE('',#52,#60,#33,.T.);
#119=EDGE_CURVE('',#65,#60,#45,.T.);
#132=EDGE_CURVE('',#60,#61,#49,.T.);
#152=(LENGTH_UNIT()NAMED_UNIT(*)SI_UNIT(.MILLI.,.METRE.));
#154=(NAMED_UNIT(*)PLANE_ANGLE_UNIT()SI_UNIT($,.RADIAN.));
#157=(NAMED_UNIT(*)SI_UNIT($,.STERADIAN.)SOLID_ANGLE_UNIT());
#163=AXIS2_PLACEMENT_3D('',#160,#161,#162);
#164=ADVANCED_BREP_SHAPE_REPRESENTATION('',(#163,#151),#159);
#171=PRODUCT_DEFINITION('design','',#170,#167);
#172=PRODUCT_DEFINITION_SHAPE('','SHAPE FOR 152732.',#171);
#173=SHAPE_DEFINITION_REPRESENTATION(#172,#164);
#174=SHAPE_DEFINITION_REPRESENTATION(#175,#176);
#175=PRODUCT_DEFINITION_SHAPE('','SHAPE FOR 192442_ASM.',#201);
#176=SHAPE_REPRESENTATION('',(#182,#197),#193);
#177=NEXT_ASSEMBLY_USAGE_OCCURRENCE('0','Next assembly relationship','152732',
#201,#171,$);
#178=PRODUCT_DEFINITION_SHAPE('Placement #0',
'Placement of 152732 with respect to 192442_ASM',#177);
#186=(LENGTH_UNIT()NAMED_UNIT(*)SI_UNIT(.MILLI.,.METRE.));
#188=(NAMED_UNIT(*)PLANE_ANGLE_UNIT()SI_UNIT($,.RADIAN.));
#191=(NAMED_UNIT(*)SI_UNIT($,.STERADIAN.)SOLID_ANGLE_UNIT());
#197=AXIS2_PLACEMENT_3D('',#194,#195,#196);
#201=PRODUCT_DEFINITION('design','',#200,#167);
ENDSEC;
END-ISO-10303-21;
