 PTC IGES file: 192439.igs                                              S      1
1H,,1H;,10H192439_ASM,10H192439.igs,                                    G      1
52HCreo Parametric by Parametric Technology Corporation,7H2013230,32,   G      2
38,7,38,15,10H192439_ASM,1.,2,2HMM,32768,0.5,15H20151223.105027,        G      3
0.0164139,164.145,8Hpdmadmin,7HUnknown,10,0,15H20151223.105027;         G      4
     314       1       1       1       0       0       0       001000200D      1
     314       0       4       1       0                   COLOR       1D      2
     314       2       1       1       0       0       0       001000200D      3
     314       0       1       1       0                   COLOR       2D      4
     314       3       1       1       0       0       0       001000200D      5
     314       0       1       1       0                   COLOR       3D      6
     314       4       1       1       0       0       0       001000200D      7
     314       0       8       1       0                   COLOR       4D      8
     314       5       1       1       0       0       0       001000200D      9
     314       0       8       1       0                   COLOR       5D     10
     314       6       1       1       0       0       0       001000200D     11
     314       0       8       1       0                   COLOR       6D     12
     314       7       1       1       0       0       0       001000200D     13
     314       0       8       1       0                   COLOR       7D     14
     314       8       1       1       0       0       0       001000200D     15
     314       0       5       1       0                   COLOR       8D     16
     314       9       1       1       0       0       0       001000200D     17
     314       0       8       1       0                   COLOR       9D     18
     314      10       1       1       0       0       0       001000200D     19
     314       0       1       1       0                   COLOR      10D     20
     110      11       1       1  152728       0       0       001010000D     21
     110       0     -19       1       0                    LINE       1D     22
     110      12       1       1  152728       0       0       001010000D     23
     110       0     -19       1       0                    LINE       2D     24
     110      13       1       1  152728       0       0       001010000D     25
     110       0     -19       1       0                    LINE       3D     26
     110      14       1       1  152728       0       0       001010000D     27
     110       0     -19       1       0                    LINE       4D     28
     110      15       1       1  152728       0       0       001010000D     29
     110       0     -19       1       0                    LINE       5D     30
     110      16       1       1  152728       0       0       001010000D     31
     110       0     -19       1       0                    LINE       6D     32
     110      17       1       1  152728       0       0       001010000D     33
     110       0     -19       1       0                    LINE       7D     34
     110      18       1       1  152728       0       0       001010000D     35
     110       0     -19       1       0                    LINE       8D     36
     110      19       1       1  152728       0       0       001010000D     37
     110       0     -19       1       0                    LINE       9D     38
     110      20       1       1  152728       0       0       001010000D     39
     110       0     -19       1       0                    LINE      10D     40
     110      21       1       1  152728       0       0       001010000D     41
     110       0     -19       1       0                    LINE      11D     42
     110      22       1       1  152728       0       0       001010000D     43
     110       0     -19       1       0                    LINE      12D     44
     502      23       1       1  152728       0       0       001010000D     45
     502       0     -19       4       1                  VERTEX       1D     46
     504      27       1       1  152728       0       0       000010001D     47
     504       0     -19       3       1                    EDGE       1D     48
     128      30       1       1  152728       0       0       001010000D     49
     128       0     -19       4       0                  SPLSRF       1D     50
     508      34       1       1  152728       0       0       001010000D     51
     508       0       0       1       1                EDGELOOP       1D     52
     510      35       1       1  152728       0       0       000010000D     53
     510       0     -19       1       1                    FACE       1D     54
     128      36       1       1  152728       0       0       001010000D     55
     128       0     -19       6       0                  SPLSRF       2D     56
     508      42       1       1  152728       0       0       001010000D     57
     508       0       0       1       1                EDGELOOP       2D     58
     510      43       1       1  152728       0       0       000010000D     59
     510       0     -19       1       1                    FACE       2D     60
     128      44       1       1  152728       0       0       001010000D     61
     128       0     -19       6       0                  SPLSRF       3D     62
     508      50       1       1  152728       0       0       001010000D     63
     508       0       0       1       1                EDGELOOP       3D     64
     510      51       1       1  152728       0       0       000010000D     65
     510       0     -19       1       1                    FACE       3D     66
     128      52       1       1  152728       0       0       001010000D     67
     128       0     -19       6       0                  SPLSRF       4D     68
     508      58       1       1  152728       0       0       001010000D     69
     508       0       0       1       1                EDGELOOP       4D     70
     510      59       1       1  152728       0       0       000010000D     71
     510       0     -19       1       1                    FACE       4D     72
     128      60       1       1  152728       0       0       001010000D     73
     128       0     -19       6       0                  SPLSRF       5D     74
     508      66       1       1  152728       0       0       001010000D     75
     508       0       0       1       1                EDGELOOP       5D     76
     510      67       1       1  152728       0       0       000010000D     77
     510       0     -19       1       1                    FACE       5D     78
     128      68       1       1  152728       0       0       001010000D     79
     128       0     -19       5       0                  SPLSRF       6D     80
     508      73       1       1  152728       0       0       001010000D     81
     508       0       0       1       1                EDGELOOP       6D     82
     510      74       1       1  152728       0       0       000010000D     83
     510       0     -19       1       1                    FACE       6D     84
     514      75       1       1  152728       0       0       000010000D     85
     514       0     -19       1       1                   SHELL       1D     86
     186      76       1       1       0       0       0       000000000D     87
     186       0     -19       1       0                    MSBR       1D     88
     406      77       1       1       0       0       0       001000000D     89
     406       0       0       1      15                    PROP       1D     90
     402      78       1       1       0       0       0       000000300D     91
     402       0       0       2       7                   LAYER       1D     92
314,1.1D0,1.2D0,1D2;                                                   1P      1
314,3.92D1,1.2D0,1.2D0;                                                3P      2
314,4.1D1,0D0,2.2D1;                                                   5P      3
314,6.952D1,7.426D1,7.9D1;                                             7P      4
314,7.84314D1,7.84314D1,7.84314D1;                                     9P      5
314,8.784D1,9.49D1,1D2;                                               11P      6
314,9.6D1,9.6D1,9.6D1;                                                13P      7
314,9.8D1,6.27D1,0D0;                                                 15P      8
314,1D2,1D2,9.49D1;                                                   17P      9
314,4D1,4D1,4D1;                                                      19P     10
110,1.72D1,0D0,-8.025D1,-1.72D1,0D0,-8.025D1;                         21P     11
110,1.72D1,0D0,8.025D1,1.72D1,0D0,-8.025D1;                           23P     12
110,-1.72D1,0D0,8.025D1,1.72D1,0D0,8.025D1;                           25P     13
110,-1.72D1,0D0,-8.025D1,-1.72D1,0D0,8.025D1;                         27P     14
110,1.72D1,0D0,-8.025D1,1.72D1,-1.8D-1,-8.025D1;                      29P     15
110,-1.72D1,0D0,-8.025D1,-1.72D1,-1.8D-1,-8.025D1;                    31P     16
110,-1.72D1,0D0,8.025D1,-1.72D1,-1.8D-1,8.025D1;                      33P     17
110,1.72D1,0D0,8.025D1,1.72D1,-1.8D-1,8.025D1;                        35P     18
110,1.72D1,-1.8D-1,-8.025D1,-1.72D1,-1.8D-1,-8.025D1;                 37P     19
110,-1.72D1,-1.8D-1,-8.025D1,-1.72D1,-1.8D-1,8.025D1;                 39P     20
110,-1.72D1,-1.8D-1,8.025D1,1.72D1,-1.8D-1,8.025D1;                   41P     21
110,1.72D1,-1.8D-1,8.025D1,1.72D1,-1.8D-1,-8.025D1;                   43P     22
502,8,1.72D1,0D0,8.025D1,1.72D1,0D0,-8.025D1,-1.72D1,0D0,             45P     23
-8.025D1,-1.72D1,0D0,8.025D1,1.72D1,-1.8D-1,8.025D1,1.72D1,           45P     24
-1.8D-1,-8.025D1,-1.72D1,-1.8D-1,-8.025D1,-1.72D1,-1.8D-1,            45P     25
8.025D1;                                                              45P     26
504,12,23,45,1,45,2,27,45,3,45,4,43,45,5,45,6,39,45,7,45,8,21,        47P     27
45,2,45,3,25,45,4,45,1,37,45,6,45,7,41,45,8,45,5,29,45,2,45,6,        47P     28
31,45,3,45,7,33,45,4,45,8,35,45,1,45,5;                               47P     29
128,1,1,1,1,0,0,1,0,0,-1.7888D1,-1.7888D1,1.7888D1,1.7888D1,          49P     30
-8.346D1,-8.346D1,8.346D1,8.346D1,1D0,1D0,1D0,1D0,-1.7888D1,0D0,      49P     31
8.346D1,1.7888D1,0D0,8.346D1,-1.7888D1,0D0,-8.346D1,1.7888D1,         49P     32
0D0,-8.346D1,-1.7888D1,1.7888D1,-8.346D1,8.346D1;                     49P     33
508,4,0,47,5,0,0,0,47,1,0,0,0,47,6,0,0,0,47,2,0,0;                    51P     34
510,49,1,0,51;                                                        53P     35
128,1,1,1,1,0,0,1,0,0,-6.88D-1,-6.88D-1,3.5088D1,3.5088D1,            55P     36
-2.160014400576D-1,-2.160014400576D-1,3.600144005760D-2,              55P     37
3.600144005760D-2,1D0,1D0,1D0,1D0,1.7888D1,-2.160014400576D-1,        55P     38
-8.025D1,-1.7888D1,-2.160014400576D-1,-8.025D1,1.7888D1,              55P     39
3.600144005760D-2,-8.025D1,-1.7888D1,3.600144005760D-2,-8.025D1,      55P     40
-6.88D-1,3.5088D1,-2.160014400576D-1,3.600144005760D-2;               55P     41
508,4,0,47,5,1,0,0,47,10,1,0,0,47,7,0,0,0,47,9,0,0;                   57P     42
510,55,1,0,57;                                                        59P     43
128,1,1,1,1,0,0,1,0,0,-3.21D0,-3.21D0,1.6371D2,1.6371D2,              61P     44
-2.160014400576D-1,-2.160014400576D-1,3.600144005760D-2,              61P     45
3.600144005760D-2,1D0,1D0,1D0,1D0,-1.72D1,-2.160014400576D-1,         61P     46
-8.346D1,-1.72D1,-2.160014400576D-1,8.346D1,-1.72D1,                  61P     47
3.600144005760D-2,-8.346D1,-1.72D1,3.600144005760D-2,8.346D1,         61P     48
-3.21D0,1.6371D2,-2.160014400576D-1,3.600144005760D-2;                61P     49
508,4,0,47,2,1,0,0,47,11,1,0,0,47,4,0,0,0,47,10,0,0;                  63P     50
510,61,1,0,63;                                                        65P     51
128,1,1,1,1,0,0,1,0,0,-6.88D-1,-6.88D-1,3.5088D1,3.5088D1,            67P     52
-2.160014400576D-1,-2.160014400576D-1,3.600144005760D-2,              67P     53
3.600144005760D-2,1D0,1D0,1D0,1D0,-1.7888D1,-2.160014400576D-1,       67P     54
8.025D1,1.7888D1,-2.160014400576D-1,8.025D1,-1.7888D1,                67P     55
3.600144005760D-2,8.025D1,1.7888D1,3.600144005760D-2,8.025D1,         67P     56
-6.88D-1,3.5088D1,-2.160014400576D-1,3.600144005760D-2;               67P     57
508,4,0,47,6,1,0,0,47,12,1,0,0,47,8,0,0,0,47,11,0,0;                  69P     58
510,67,1,0,69;                                                        71P     59
128,1,1,1,1,0,0,1,0,0,-3.21D0,-3.21D0,1.6371D2,1.6371D2,              73P     60
-2.160014400576D-1,-2.160014400576D-1,3.600144005760D-2,              73P     61
3.600144005760D-2,1D0,1D0,1D0,1D0,1.72D1,-2.160014400576D-1,          73P     62
8.346D1,1.72D1,-2.160014400576D-1,-8.346D1,1.72D1,                    73P     63
3.600144005760D-2,8.346D1,1.72D1,3.600144005760D-2,-8.346D1,          73P     64
-3.21D0,1.6371D2,-2.160014400576D-1,3.600144005760D-2;                73P     65
508,4,0,47,1,1,0,0,47,9,1,0,0,47,3,0,0,0,47,12,0,0;                   75P     66
510,73,1,0,75;                                                        77P     67
128,1,1,1,1,0,0,1,0,0,-1.7888D1,-1.7888D1,1.7888D1,1.7888D1,          79P     68
-8.346D1,-8.346D1,8.346D1,8.346D1,1D0,1D0,1D0,1D0,-1.7888D1,          79P     69
-1.8D-1,8.346D1,1.7888D1,-1.8D-1,8.346D1,-1.7888D1,-1.8D-1,           79P     70
-8.346D1,1.7888D1,-1.8D-1,-8.346D1,-1.7888D1,1.7888D1,-8.346D1,       79P     71
8.346D1;                                                              79P     72
508,4,0,47,7,1,0,0,47,4,1,0,0,47,8,1,0,0,47,3,1,0;                    81P     73
510,79,1,0,81;                                                        83P     74
514,6,53,1,59,1,65,1,71,1,77,1,83,0;                                  85P     75
186,85,1,0;                                                           87P     76
406,1,6H152728;                                                       89P     77
402,34,21,23,25,27,29,31,33,35,37,39,41,43,45,47,49,51,53,55,57,      91P     78
59,61,63,65,67,69,71,73,75,77,79,81,83,85,87,0,1,89;                  91P     79
S      1G      4D     92P     79                                        T      1
