ISO-10303-21;
HEADER;
FILE_DESCRIPTION((''),'2;1');
FILE_NAME('192437_ASM','2015-12-23T',('pdmadmin'),(''),
'PRO/ENGINEER BY PARAMETRIC TECHNOLOGY CORPORATION, 2013230',
'PRO/ENGINEER BY PARAMETRIC TECHNOLOGY CORPORATION, 2013230','');
FILE_SCHEMA(('CONFIG_CONTROL_DESIGN'));
ENDSEC;
DATA;
#2=CARTESIAN_POINT('',(-1.276956255120E-1,0.E0,-2.503094629156E-1));
#3=DIRECTION('',(0.E0,1.E0,0.E0));
#4=DIRECTION('',(6.720822395369E-1,0.E0,-7.404765109705E-1));
#5=AXIS2_PLACEMENT_3D('',#2,#3,#4);
#7=CARTESIAN_POINT('',(-2.788884313544E-1,0.E0,-3.438375861811E-2));
#8=DIRECTION('',(0.E0,1.E0,0.E0));
#9=DIRECTION('',(-9.924855208340E-1,0.E0,-1.223621303136E-1));
#10=AXIS2_PLACEMENT_3D('',#7,#8,#9);
#12=CARTESIAN_POINT('',(-1.915394790750E-1,0.E0,2.056055153824E-1));
#13=DIRECTION('',(0.E0,1.E0,0.E0));
#14=DIRECTION('',(-9.256859771173E-1,0.E0,-3.782928386427E-1));
#15=AXIS2_PLACEMENT_3D('',#12,#13,#14);
#17=CARTESIAN_POINT('',(2.17E-1,0.E0,1.785273088354E-1));
#18=DIRECTION('',(0.E0,1.E0,0.E0));
#19=DIRECTION('',(7.722419928826E-1,0.E0,6.353285011935E-1));
#20=AXIS2_PLACEMENT_3D('',#17,#18,#19);
#22=DIRECTION('',(0.E0,0.E0,1.E0));
#23=VECTOR('',#22,3.570546176707E-1);
#24=CARTESIAN_POINT('',(4.07E-1,0.E0,-1.785273088354E-1));
#25=LINE('',#24,#23);
#26=CARTESIAN_POINT('',(2.17E-1,0.E0,-1.785273088354E-1));
#27=DIRECTION('',(0.E0,1.E0,0.E0));
#28=DIRECTION('',(1.E0,0.E0,0.E0));
#29=AXIS2_PLACEMENT_3D('',#26,#27,#28);
#31=CARTESIAN_POINT('',(1.276956255120E-1,0.E0,-2.503094629156E-1));
#32=DIRECTION('',(0.E0,1.E0,0.E0));
#33=DIRECTION('',(4.544328310036E-1,0.E0,-8.907810068171E-1));
#34=AXIS2_PLACEMENT_3D('',#31,#32,#33);
#36=DIRECTION('',(0.E0,-1.E0,0.E0));
#37=VECTOR('',#36,1.E-2);
#38=CARTESIAN_POINT('',(0.E0,1.E-2,-3.91E-1));
#39=LINE('',#38,#37);
#40=DIRECTION('',(-1.110223024625E-14,1.E0,0.E0));
#41=VECTOR('',#40,1.E-2);
#42=CARTESIAN_POINT('',(-2.140378634027E-1,0.E0,-4.195578542108E-1));
#43=LINE('',#42,#41);
#44=CARTESIAN_POINT('',(0.E0,1.E-2,0.E0));
#45=DIRECTION('',(0.E0,1.E0,0.E0));
#46=DIRECTION('',(-4.544328310036E-1,0.E0,-8.907810068171E-1));
#47=AXIS2_PLACEMENT_3D('',#44,#45,#46);
#49=DIRECTION('',(0.E0,1.E0,0.E0));
#50=VECTOR('',#49,1.E-2);
#51=CARTESIAN_POINT('',(-4.674606803128E-1,0.E0,-5.763256337769E-2));
#52=LINE('',#51,#50);
#53=CARTESIAN_POINT('',(0.E0,0.E0,0.E0));
#54=DIRECTION('',(0.E0,-1.E0,0.E0));
#55=DIRECTION('',(-9.924855208340E-1,0.E0,-1.223621303136E-1));
#56=AXIS2_PLACEMENT_3D('',#53,#54,#55);
#58=DIRECTION('',(0.E0,1.E0,0.E0));
#59=VECTOR('',#58,1.E-2);
#60=CARTESIAN_POINT('',(2.140378634027E-1,0.E0,-4.195578542108E-1));
#61=LINE('',#60,#59);
#62=CARTESIAN_POINT('',(0.E0,0.E0,0.E0));
#63=DIRECTION('',(0.E0,-1.E0,0.E0));
#64=DIRECTION('',(4.544328310036E-1,0.E0,-8.907810068171E-1));
#65=AXIS2_PLACEMENT_3D('',#62,#63,#64);
#67=DIRECTION('',(0.E0,1.E0,0.E0));
#68=VECTOR('',#67,1.E-2);
#69=CARTESIAN_POINT('',(3.637259786477E-1,0.E0,-2.992397240621E-1));
#70=LINE('',#69,#68);
#71=CARTESIAN_POINT('',(0.E0,1.E-2,0.E0));
#72=DIRECTION('',(0.E0,1.E0,0.E0));
#73=DIRECTION('',(7.722419928826E-1,0.E0,-6.353285011935E-1));
#74=AXIS2_PLACEMENT_3D('',#71,#72,#73);
#76=CARTESIAN_POINT('',(0.E0,0.E0,0.E0));
#77=DIRECTION('',(0.E0,-1.E0,0.E0));
#78=DIRECTION('',(7.722419928826E-1,0.E0,6.353285011935E-1));
#79=AXIS2_PLACEMENT_3D('',#76,#77,#78);
#81=DIRECTION('',(0.E0,1.E0,0.E0));
#82=VECTOR('',#81,1.E-2);
#83=CARTESIAN_POINT('',(-3.210501588766E-1,0.E0,3.446270382389E-1));
#84=LINE('',#83,#82);
#85=CARTESIAN_POINT('',(0.E0,1.E-2,0.E0));
#86=DIRECTION('',(0.E0,1.E0,0.E0));
#87=DIRECTION('',(-6.816351568505E-1,0.E0,7.316922255603E-1));
#88=AXIS2_PLACEMENT_3D('',#85,#86,#87);
#90=DIRECTION('',(0.E0,1.E0,0.E0));
#91=VECTOR('',#90,1.E-2);
#92=CARTESIAN_POINT('',(3.637259786477E-1,0.E0,2.992397240621E-1));
#93=LINE('',#92,#91);
#94=CARTESIAN_POINT('',(-1.276956255120E-1,1.E-2,-2.503094629156E-1));
#95=DIRECTION('',(0.E0,1.E0,0.E0));
#96=DIRECTION('',(6.720822395369E-1,0.E0,-7.404765109705E-1));
#97=AXIS2_PLACEMENT_3D('',#94,#95,#96);
#99=CARTESIAN_POINT('',(1.276956255120E-1,1.E-2,-2.503094629156E-1));
#100=DIRECTION('',(0.E0,1.E0,0.E0));
#101=DIRECTION('',(4.544328310036E-1,0.E0,-8.907810068171E-1));
#102=AXIS2_PLACEMENT_3D('',#99,#100,#101);
#104=CARTESIAN_POINT('',(2.17E-1,1.E-2,-1.785273088354E-1));
#105=DIRECTION('',(0.E0,1.E0,0.E0));
#106=DIRECTION('',(1.E0,0.E0,0.E0));
#107=AXIS2_PLACEMENT_3D('',#104,#105,#106);
#109=DIRECTION('',(0.E0,0.E0,1.E0));
#110=VECTOR('',#109,3.570546176707E-1);
#111=CARTESIAN_POINT('',(4.07E-1,1.E-2,-1.785273088354E-1));
#112=LINE('',#111,#110);
#113=CARTESIAN_POINT('',(2.17E-1,1.E-2,1.785273088354E-1));
#114=DIRECTION('',(0.E0,1.E0,0.E0));
#115=DIRECTION('',(7.722419928826E-1,0.E0,6.353285011935E-1));
#116=AXIS2_PLACEMENT_3D('',#113,#114,#115);
#118=CARTESIAN_POINT('',(-1.915394790750E-1,1.E-2,2.056055153824E-1));
#119=DIRECTION('',(0.E0,1.E0,0.E0));
#120=DIRECTION('',(-9.256859771173E-1,0.E0,-3.782928386427E-1));
#121=AXIS2_PLACEMENT_3D('',#118,#119,#120);
#123=CARTESIAN_POINT('',(-2.788884313544E-1,1.E-2,-3.438375861811E-2));
#124=DIRECTION('',(0.E0,1.E0,0.E0));
#125=DIRECTION('',(-9.924855208340E-1,0.E0,-1.223621303136E-1));
#126=AXIS2_PLACEMENT_3D('',#123,#124,#125);
#128=DIRECTION('',(0.E0,-1.E0,0.E0));
#129=VECTOR('',#128,1.E-2);
#130=CARTESIAN_POINT('',(4.07E-1,1.E-2,-1.785273088354E-1));
#131=LINE('',#130,#129);
#132=DIRECTION('',(0.E0,-1.E0,0.E0));
#133=VECTOR('',#132,1.E-2);
#134=CARTESIAN_POINT('',(4.07E-1,1.E-2,1.785273088354E-1));
#135=LINE('',#134,#133);
#136=DIRECTION('',(0.E0,-1.E0,0.E0));
#137=VECTOR('',#136,1.E-2);
#138=CARTESIAN_POINT('',(-3.674198147273E-1,1.E-2,1.337298760403E-1));
#139=LINE('',#138,#137);
#140=CARTESIAN_POINT('',(4.07E-1,0.E0,-1.785273088354E-1));
#141=CARTESIAN_POINT('',(3.637259786477E-1,0.E0,-2.992397240621E-1));
#142=VERTEX_POINT('',#140);
#143=VERTEX_POINT('',#141);
#144=CARTESIAN_POINT('',(4.07E-1,0.E0,1.785273088354E-1));
#145=VERTEX_POINT('',#144);
#146=CARTESIAN_POINT('',(3.637259786477E-1,0.E0,2.992397240621E-1));
#147=VERTEX_POINT('',#146);
#148=CARTESIAN_POINT('',(4.07E-1,1.E-2,-1.785273088354E-1));
#149=CARTESIAN_POINT('',(3.637259786477E-1,1.E-2,-2.992397240621E-1));
#150=VERTEX_POINT('',#148);
#151=VERTEX_POINT('',#149);
#152=CARTESIAN_POINT('',(4.07E-1,1.E-2,1.785273088354E-1));
#153=VERTEX_POINT('',#152);
#154=CARTESIAN_POINT('',(3.637259786477E-1,1.E-2,2.992397240621E-1));
#155=VERTEX_POINT('',#154);
#156=CARTESIAN_POINT('',(0.E0,0.E0,-3.91E-1));
#157=CARTESIAN_POINT('',(-2.140378634027E-1,0.E0,-4.195578542108E-1));
#158=VERTEX_POINT('',#156);
#159=VERTEX_POINT('',#157);
#160=CARTESIAN_POINT('',(2.140378634027E-1,0.E0,-4.195578542108E-1));
#161=VERTEX_POINT('',#160);
#162=CARTESIAN_POINT('',(0.E0,1.E-2,-3.91E-1));
#163=CARTESIAN_POINT('',(-2.140378634027E-1,1.E-2,-4.195578542108E-1));
#164=VERTEX_POINT('',#162);
#165=VERTEX_POINT('',#163);
#166=CARTESIAN_POINT('',(2.140378634027E-1,1.E-2,-4.195578542108E-1));
#167=VERTEX_POINT('',#166);
#168=CARTESIAN_POINT('',(-4.674606803128E-1,1.E-2,-5.763256337769E-2));
#169=VERTEX_POINT('',#168);
#170=CARTESIAN_POINT('',(-3.210501588766E-1,0.E0,3.446270382389E-1));
#171=VERTEX_POINT('',#170);
#172=CARTESIAN_POINT('',(-4.674606803128E-1,0.E0,-5.763256337769E-2));
#173=VERTEX_POINT('',#172);
#174=CARTESIAN_POINT('',(-3.674198147273E-1,0.E0,1.337298760403E-1));
#175=VERTEX_POINT('',#174);
#176=CARTESIAN_POINT('',(-3.674198147273E-1,1.E-2,1.337298760403E-1));
#177=CARTESIAN_POINT('',(-3.210501588766E-1,1.E-2,3.446270382389E-1));
#178=VERTEX_POINT('',#176);
#179=VERTEX_POINT('',#177);
#180=CARTESIAN_POINT('',(0.E0,0.E0,0.E0));
#181=DIRECTION('',(0.E0,1.E0,0.E0));
#182=DIRECTION('',(1.E0,0.E0,0.E0));
#183=AXIS2_PLACEMENT_3D('',#180,#181,#182);
#184=PLANE('',#183);
#186=ORIENTED_EDGE('',*,*,#185,.T.);
#188=ORIENTED_EDGE('',*,*,#187,.F.);
#190=ORIENTED_EDGE('',*,*,#189,.T.);
#192=ORIENTED_EDGE('',*,*,#191,.T.);
#194=ORIENTED_EDGE('',*,*,#193,.F.);
#196=ORIENTED_EDGE('',*,*,#195,.T.);
#198=ORIENTED_EDGE('',*,*,#197,.F.);
#200=ORIENTED_EDGE('',*,*,#199,.T.);
#202=ORIENTED_EDGE('',*,*,#201,.F.);
#204=ORIENTED_EDGE('',*,*,#203,.T.);
#205=EDGE_LOOP('',(#186,#188,#190,#192,#194,#196,#198,#200,#202,#204));
#206=FACE_OUTER_BOUND('',#205,.F.);
#207=ADVANCED_FACE('',(#206),#184,.F.);
#208=CARTESIAN_POINT('',(-1.276956255120E-1,1.E-2,-2.503094629156E-1));
#209=DIRECTION('',(0.E0,1.E0,0.E0));
#210=DIRECTION('',(1.E0,0.E0,0.E0));
#211=AXIS2_PLACEMENT_3D('',#208,#209,#210);
#212=CYLINDRICAL_SURFACE('',#211,1.9E-1);
#213=ORIENTED_EDGE('',*,*,#185,.F.);
#215=ORIENTED_EDGE('',*,*,#214,.F.);
#217=ORIENTED_EDGE('',*,*,#216,.T.);
#219=ORIENTED_EDGE('',*,*,#218,.F.);
#220=EDGE_LOOP('',(#213,#215,#217,#219));
#221=FACE_OUTER_BOUND('',#220,.F.);
#222=ADVANCED_FACE('',(#221),#212,.T.);
#223=CARTESIAN_POINT('',(1.276956255120E-1,1.E-2,-2.503094629156E-1));
#224=DIRECTION('',(0.E0,1.E0,0.E0));
#225=DIRECTION('',(1.E0,0.E0,0.E0));
#226=AXIS2_PLACEMENT_3D('',#223,#224,#225);
#227=CYLINDRICAL_SURFACE('',#226,1.9E-1);
#228=ORIENTED_EDGE('',*,*,#203,.F.);
#230=ORIENTED_EDGE('',*,*,#229,.T.);
#232=ORIENTED_EDGE('',*,*,#231,.T.);
#233=ORIENTED_EDGE('',*,*,#214,.T.);
#234=EDGE_LOOP('',(#228,#230,#232,#233));
#235=FACE_OUTER_BOUND('',#234,.F.);
#236=ADVANCED_FACE('',(#235),#227,.T.);
#237=CARTESIAN_POINT('',(0.E0,0.E0,0.E0));
#238=DIRECTION('',(0.E0,1.E0,0.E0));
#239=DIRECTION('',(1.E0,0.E0,0.E0));
#240=AXIS2_PLACEMENT_3D('',#237,#238,#239);
#241=CYLINDRICAL_SURFACE('',#240,4.71E-1);
#242=ORIENTED_EDGE('',*,*,#218,.T.);
#244=ORIENTED_EDGE('',*,*,#243,.T.);
#246=ORIENTED_EDGE('',*,*,#245,.F.);
#247=ORIENTED_EDGE('',*,*,#187,.T.);
#248=EDGE_LOOP('',(#242,#244,#246,#247));
#249=FACE_OUTER_BOUND('',#248,.F.);
#250=ADVANCED_FACE('',(#249),#241,.T.);
#251=CARTESIAN_POINT('',(0.E0,0.E0,0.E0));
#252=DIRECTION('',(0.E0,1.E0,0.E0));
#253=DIRECTION('',(1.E0,0.E0,0.E0));
#254=AXIS2_PLACEMENT_3D('',#251,#252,#253);
#255=CYLINDRICAL_SURFACE('',#254,4.71E-1);
#256=ORIENTED_EDGE('',*,*,#229,.F.);
#257=ORIENTED_EDGE('',*,*,#201,.T.);
#259=ORIENTED_EDGE('',*,*,#258,.T.);
#261=ORIENTED_EDGE('',*,*,#260,.T.);
#262=EDGE_LOOP('',(#256,#257,#259,#261));
#263=FACE_OUTER_BOUND('',#262,.F.);
#264=ADVANCED_FACE('',(#263),#255,.T.);
#265=CARTESIAN_POINT('',(0.E0,0.E0,0.E0));
#266=DIRECTION('',(0.E0,1.E0,0.E0));
#267=DIRECTION('',(1.E0,0.E0,0.E0));
#268=AXIS2_PLACEMENT_3D('',#265,#266,#267);
#269=CYLINDRICAL_SURFACE('',#268,4.71E-1);
#270=ORIENTED_EDGE('',*,*,#193,.T.);
#272=ORIENTED_EDGE('',*,*,#271,.T.);
#274=ORIENTED_EDGE('',*,*,#273,.T.);
#276=ORIENTED_EDGE('',*,*,#275,.F.);
#277=EDGE_LOOP('',(#270,#272,#274,#276));
#278=FACE_OUTER_BOUND('',#277,.F.);
#279=ADVANCED_FACE('',(#278),#269,.T.);
#280=CARTESIAN_POINT('',(0.E0,1.E-2,0.E0));
#281=DIRECTION('',(0.E0,1.E0,0.E0));
#282=DIRECTION('',(1.E0,0.E0,0.E0));
#283=AXIS2_PLACEMENT_3D('',#280,#281,#282);
#284=PLANE('',#283);
#285=ORIENTED_EDGE('',*,*,#216,.F.);
#286=ORIENTED_EDGE('',*,*,#231,.F.);
#287=ORIENTED_EDGE('',*,*,#260,.F.);
#289=ORIENTED_EDGE('',*,*,#288,.F.);
#291=ORIENTED_EDGE('',*,*,#290,.T.);
#293=ORIENTED_EDGE('',*,*,#292,.F.);
#294=ORIENTED_EDGE('',*,*,#273,.F.);
#296=ORIENTED_EDGE('',*,*,#295,.F.);
#298=ORIENTED_EDGE('',*,*,#297,.F.);
#299=ORIENTED_EDGE('',*,*,#243,.F.);
#300=EDGE_LOOP('',(#285,#286,#287,#289,#291,#293,#294,#296,#298,#299));
#301=FACE_OUTER_BOUND('',#300,.F.);
#302=ADVANCED_FACE('',(#301),#284,.T.);
#303=CARTESIAN_POINT('',(2.17E-1,1.E-2,-1.785273088354E-1));
#304=DIRECTION('',(0.E0,1.E0,0.E0));
#305=DIRECTION('',(1.E0,0.E0,0.E0));
#306=AXIS2_PLACEMENT_3D('',#303,#304,#305);
#307=CYLINDRICAL_SURFACE('',#306,1.9E-1);
#308=ORIENTED_EDGE('',*,*,#199,.F.);
#310=ORIENTED_EDGE('',*,*,#309,.F.);
#311=ORIENTED_EDGE('',*,*,#288,.T.);
#312=ORIENTED_EDGE('',*,*,#258,.F.);
#313=EDGE_LOOP('',(#308,#310,#311,#312));
#314=FACE_OUTER_BOUND('',#313,.F.);
#315=ADVANCED_FACE('',(#314),#307,.T.);
#316=CARTESIAN_POINT('',(4.07E-1,1.E-2,-1.785273088354E-1));
#317=DIRECTION('',(-1.E0,0.E0,0.E0));
#318=DIRECTION('',(0.E0,0.E0,1.E0));
#319=AXIS2_PLACEMENT_3D('',#316,#317,#318);
#320=PLANE('',#319);
#321=ORIENTED_EDGE('',*,*,#197,.T.);
#323=ORIENTED_EDGE('',*,*,#322,.F.);
#324=ORIENTED_EDGE('',*,*,#290,.F.);
#325=ORIENTED_EDGE('',*,*,#309,.T.);
#326=EDGE_LOOP('',(#321,#323,#324,#325));
#327=FACE_OUTER_BOUND('',#326,.F.);
#328=ADVANCED_FACE('',(#327),#320,.F.);
#329=CARTESIAN_POINT('',(2.17E-1,1.E-2,1.785273088354E-1));
#330=DIRECTION('',(0.E0,1.E0,0.E0));
#331=DIRECTION('',(1.E0,0.E0,0.E0));
#332=AXIS2_PLACEMENT_3D('',#329,#330,#331);
#333=CYLINDRICAL_SURFACE('',#332,1.9E-1);
#334=ORIENTED_EDGE('',*,*,#195,.F.);
#335=ORIENTED_EDGE('',*,*,#275,.T.);
#336=ORIENTED_EDGE('',*,*,#292,.T.);
#337=ORIENTED_EDGE('',*,*,#322,.T.);
#338=EDGE_LOOP('',(#334,#335,#336,#337));
#339=FACE_OUTER_BOUND('',#338,.F.);
#340=ADVANCED_FACE('',(#339),#333,.T.);
#341=CARTESIAN_POINT('',(-1.915394790750E-1,1.E-2,2.056055153824E-1));
#342=DIRECTION('',(0.E0,1.E0,0.E0));
#343=DIRECTION('',(1.E0,0.E0,0.E0));
#344=AXIS2_PLACEMENT_3D('',#341,#342,#343);
#345=CYLINDRICAL_SURFACE('',#344,1.9E-1);
#346=ORIENTED_EDGE('',*,*,#191,.F.);
#348=ORIENTED_EDGE('',*,*,#347,.F.);
#349=ORIENTED_EDGE('',*,*,#295,.T.);
#350=ORIENTED_EDGE('',*,*,#271,.F.);
#351=EDGE_LOOP('',(#346,#348,#349,#350));
#352=FACE_OUTER_BOUND('',#351,.F.);
#353=ADVANCED_FACE('',(#352),#345,.T.);
#354=CARTESIAN_POINT('',(-2.788884313544E-1,1.E-2,-3.438375861811E-2));
#355=DIRECTION('',(0.E0,1.E0,0.E0));
#356=DIRECTION('',(1.E0,0.E0,0.E0));
#357=AXIS2_PLACEMENT_3D('',#354,#355,#356);
#358=CYLINDRICAL_SURFACE('',#357,1.9E-1);
#359=ORIENTED_EDGE('',*,*,#189,.F.);
#360=ORIENTED_EDGE('',*,*,#245,.T.);
#361=ORIENTED_EDGE('',*,*,#297,.T.);
#362=ORIENTED_EDGE('',*,*,#347,.T.);
#363=EDGE_LOOP('',(#359,#360,#361,#362));
#364=FACE_OUTER_BOUND('',#363,.F.);
#365=ADVANCED_FACE('',(#364),#358,.T.);
#366=CLOSED_SHELL('',(#207,#222,#236,#250,#264,#279,#302,#315,#328,#340,#353,
#365));
#367=MANIFOLD_SOLID_BREP('',#366);
#368=DIMENSIONAL_EXPONENTS(1.E0,0.E0,0.E0,0.E0,0.E0,0.E0,0.E0);
#370=LENGTH_MEASURE_WITH_UNIT(LENGTH_MEASURE(2.54E1),#369);
#371=(CONVERSION_BASED_UNIT('INCH',#370)LENGTH_UNIT()NAMED_UNIT(#368));
#372=DIMENSIONAL_EXPONENTS(0.E0,0.E0,0.E0,0.E0,0.E0,0.E0,0.E0);
#374=PLANE_ANGLE_MEASURE_WITH_UNIT(PLANE_ANGLE_MEASURE(1.745329251994E-2),#373);
#375=(CONVERSION_BASED_UNIT('DEGREE',#374)NAMED_UNIT(*)PLANE_ANGLE_UNIT());
#377=UNCERTAINTY_MEASURE_WITH_UNIT(LENGTH_MEASURE(1.332173418366E-4),#371,
'closure',
'Maximum model space distance between geometric entities at asserted connectivities');
#378=(GEOMETRIC_REPRESENTATION_CONTEXT(3)GLOBAL_UNCERTAINTY_ASSIGNED_CONTEXT((
#377))GLOBAL_UNIT_ASSIGNED_CONTEXT((#371,#375,#376))REPRESENTATION_CONTEXT
('ID1','3'));
#379=CARTESIAN_POINT('',(0.E0,0.E0,0.E0));
#380=DIRECTION('',(0.E0,0.E0,1.E0));
#381=DIRECTION('',(1.E0,0.E0,0.E0));
#384=APPLICATION_CONTEXT(
'CONFIGURATION CONTROLLED 3D DESIGNS OF MECHANICAL PARTS AND ASSEMBLIES');
#385=APPLICATION_PROTOCOL_DEFINITION('international standard',
'config_control_design',1994,#384);
#386=DESIGN_CONTEXT('',#384,'design');
#387=MECHANICAL_CONTEXT('',#384,'mechanical');
#388=PRODUCT('57233','57233','NOT SPECIFIED',(#387));
#389=PRODUCT_DEFINITION_FORMATION_WITH_SPECIFIED_SOURCE('1','LAST_VERSION',#388,
.MADE.);
#398=CARTESIAN_POINT('',(0.E0,0.E0,0.E0));
#399=DIRECTION('',(0.E0,0.E0,1.E0));
#400=DIRECTION('',(1.E0,0.E0,0.E0));
#401=AXIS2_PLACEMENT_3D('',#398,#399,#400);
#402=ITEM_DEFINED_TRANSFORMATION('','',#382,#401);
#403=(REPRESENTATION_RELATIONSHIP('','',#383,#395)REPRESENTATION_RELATIONSHIP_WITH_TRANSFORMATION(#402)SHAPE_REPRESENTATION_RELATIONSHIP());
#404=CONTEXT_DEPENDENT_SHAPE_REPRESENTATION(#403,#397);
#406=DIMENSIONAL_EXPONENTS(0.E0,0.E0,0.E0,0.E0,0.E0,0.E0,0.E0);
#408=PLANE_ANGLE_MEASURE_WITH_UNIT(PLANE_ANGLE_MEASURE(1.745329251994E-2),#407);
#409=(CONVERSION_BASED_UNIT('DEGREE',#408)NAMED_UNIT(*)PLANE_ANGLE_UNIT());
#411=UNCERTAINTY_MEASURE_WITH_UNIT(LENGTH_MEASURE(3.271367134729E-3),#405,
'closure',
'Maximum model space distance between geometric entities at asserted connectivities');
#412=(GEOMETRIC_REPRESENTATION_CONTEXT(3)GLOBAL_UNCERTAINTY_ASSIGNED_CONTEXT((
#411))GLOBAL_UNIT_ASSIGNED_CONTEXT((#405,#409,#410))REPRESENTATION_CONTEXT
('ID2','3'));
#413=CARTESIAN_POINT('',(0.E0,0.E0,0.E0));
#414=DIRECTION('',(0.E0,0.E0,1.E0));
#415=DIRECTION('',(1.E0,0.E0,0.E0));
#417=MECHANICAL_CONTEXT('',#384,'mechanical');
#418=PRODUCT('192437_ASM','192437_ASM','NOT SPECIFIED',(#417));
#419=PRODUCT_DEFINITION_FORMATION_WITH_SPECIFIED_SOURCE('1','LAST_VERSION',#418,
.MADE.);
#421=PRODUCT_CATEGORY('part','');
#422=PRODUCT_RELATED_PRODUCT_CATEGORY('assembly','',(#418));
#423=PRODUCT_CATEGORY_RELATIONSHIP('','',#421,#422);
#424=PRODUCT_CATEGORY('part','');
#425=PRODUCT_RELATED_PRODUCT_CATEGORY('detail','',(#388));
#426=PRODUCT_CATEGORY_RELATIONSHIP('','',#424,#425);
#427=SECURITY_CLASSIFICATION_LEVEL('unclassified');
#428=SECURITY_CLASSIFICATION('','',#427);
#429=CC_DESIGN_SECURITY_CLASSIFICATION(#428,(#389,#419,#396));
#430=APPROVAL_STATUS('approved');
#431=APPROVAL(#430,'');
#432=CC_DESIGN_APPROVAL(#431,(#428,#389,#419,#390,#420));
#433=CALENDAR_DATE(115,23,12);
#434=COORDINATED_UNIVERSAL_TIME_OFFSET(6,0,.BEHIND.);
#435=LOCAL_TIME(10,24,3.6E1,#434);
#436=DATE_AND_TIME(#433,#435);
#437=APPROVAL_DATE_TIME(#436,#431);
#438=DATE_TIME_ROLE('creation_date');
#439=CC_DESIGN_DATE_AND_TIME_ASSIGNMENT(#436,#438,(#390,#420));
#440=DATE_TIME_ROLE('classification_date');
#441=CC_DESIGN_DATE_AND_TIME_ASSIGNMENT(#436,#440,(#428));
#442=PERSON('UNSPECIFIED','UNSPECIFIED',$,$,$,$);
#443=ORGANIZATION('UNSPECIFIED','UNSPECIFIED','UNSPECIFIED');
#444=PERSON_AND_ORGANIZATION(#442,#443);
#445=APPROVAL_ROLE('approver');
#446=APPROVAL_PERSON_ORGANIZATION(#444,#431,#445);
#447=PERSON_AND_ORGANIZATION_ROLE('creator');
#448=CC_DESIGN_PERSON_AND_ORGANIZATION_ASSIGNMENT(#444,#447,(#389,#419,#390,
#420));
#449=PERSON_AND_ORGANIZATION_ROLE('design_supplier');
#450=CC_DESIGN_PERSON_AND_ORGANIZATION_ASSIGNMENT(#444,#449,(#389,#419));
#451=PERSON_AND_ORGANIZATION_ROLE('classification_officer');
#452=CC_DESIGN_PERSON_AND_ORGANIZATION_ASSIGNMENT(#444,#451,(#428));
#453=PERSON_AND_ORGANIZATION_ROLE('design_owner');
#454=CC_DESIGN_PERSON_AND_ORGANIZATION_ASSIGNMENT(#444,#453,(#418,#388));
#6=CIRCLE('',#5,1.9E-1);
#11=CIRCLE('',#10,1.9E-1);
#16=CIRCLE('',#15,1.9E-1);
#21=CIRCLE('',#20,1.9E-1);
#30=CIRCLE('',#29,1.9E-1);
#35=CIRCLE('',#34,1.9E-1);
#48=CIRCLE('',#47,4.71E-1);
#57=CIRCLE('',#56,4.71E-1);
#66=CIRCLE('',#65,4.71E-1);
#75=CIRCLE('',#74,4.71E-1);
#80=CIRCLE('',#79,4.71E-1);
#89=CIRCLE('',#88,4.71E-1);
#98=CIRCLE('',#97,1.9E-1);
#103=CIRCLE('',#102,1.9E-1);
#108=CIRCLE('',#107,1.9E-1);
#117=CIRCLE('',#116,1.9E-1);
#122=CIRCLE('',#121,1.9E-1);
#127=CIRCLE('',#126,1.9E-1);
#185=EDGE_CURVE('',#158,#159,#6,.T.);
#187=EDGE_CURVE('',#173,#159,#57,.T.);
#189=EDGE_CURVE('',#173,#175,#11,.T.);
#191=EDGE_CURVE('',#175,#171,#16,.T.);
#193=EDGE_CURVE('',#147,#171,#80,.T.);
#195=EDGE_CURVE('',#147,#145,#21,.T.);
#197=EDGE_CURVE('',#142,#145,#25,.T.);
#199=EDGE_CURVE('',#142,#143,#30,.T.);
#201=EDGE_CURVE('',#161,#143,#66,.T.);
#203=EDGE_CURVE('',#161,#158,#35,.T.);
#214=EDGE_CURVE('',#164,#158,#39,.T.);
#216=EDGE_CURVE('',#164,#165,#98,.T.);
#218=EDGE_CURVE('',#159,#165,#43,.T.);
#229=EDGE_CURVE('',#161,#167,#61,.T.);
#231=EDGE_CURVE('',#167,#164,#103,.T.);
#243=EDGE_CURVE('',#165,#169,#48,.T.);
#245=EDGE_CURVE('',#173,#169,#52,.T.);
#258=EDGE_CURVE('',#143,#151,#70,.T.);
#260=EDGE_CURVE('',#151,#167,#75,.T.);
#271=EDGE_CURVE('',#171,#179,#84,.T.);
#273=EDGE_CURVE('',#179,#155,#89,.T.);
#275=EDGE_CURVE('',#147,#155,#93,.T.);
#288=EDGE_CURVE('',#150,#151,#108,.T.);
#290=EDGE_CURVE('',#150,#153,#112,.T.);
#292=EDGE_CURVE('',#155,#153,#117,.T.);
#295=EDGE_CURVE('',#178,#179,#122,.T.);
#297=EDGE_CURVE('',#169,#178,#127,.T.);
#309=EDGE_CURVE('',#150,#142,#131,.T.);
#322=EDGE_CURVE('',#153,#145,#135,.T.);
#347=EDGE_CURVE('',#178,#175,#139,.T.);
#369=(LENGTH_UNIT()NAMED_UNIT(*)SI_UNIT(.MILLI.,.METRE.));
#373=(NAMED_UNIT(*)PLANE_ANGLE_UNIT()SI_UNIT($,.RADIAN.));
#376=(NAMED_UNIT(*)SI_UNIT($,.STERADIAN.)SOLID_ANGLE_UNIT());
#382=AXIS2_PLACEMENT_3D('',#379,#380,#381);
#383=ADVANCED_BREP_SHAPE_REPRESENTATION('',(#382,#367),#378);
#390=PRODUCT_DEFINITION('design','',#389,#386);
#391=PRODUCT_DEFINITION_SHAPE('','SHAPE FOR 57233.',#390);
#392=SHAPE_DEFINITION_REPRESENTATION(#391,#383);
#393=SHAPE_DEFINITION_REPRESENTATION(#394,#395);
#394=PRODUCT_DEFINITION_SHAPE('','SHAPE FOR 192437_ASM.',#420);
#395=SHAPE_REPRESENTATION('',(#401,#416),#412);
#396=NEXT_ASSEMBLY_USAGE_OCCURRENCE('0','Next assembly relationship','57233',
#420,#390,$);
#397=PRODUCT_DEFINITION_SHAPE('Placement #0',
'Placement of 57233 with respect to 192437_ASM',#396);
#405=(LENGTH_UNIT()NAMED_UNIT(*)SI_UNIT(.MILLI.,.METRE.));
#407=(NAMED_UNIT(*)PLANE_ANGLE_UNIT()SI_UNIT($,.RADIAN.));
#410=(NAMED_UNIT(*)SI_UNIT($,.STERADIAN.)SOLID_ANGLE_UNIT());
#416=AXIS2_PLACEMENT_3D('',#413,#414,#415);
#420=PRODUCT_DEFINITION('design','',#419,#386);
ENDSEC;
END-ISO-10303-21;
