ISO-10303-21;
HEADER;
FILE_DESCRIPTION((''),'2;1');
FILE_NAME('192436_ASM','2015-12-23T',('pdmadmin'),(''),
'PRO/ENGINEER BY PARAMETRIC TECHNOLOGY CORPORATION, 2013230',
'PRO/ENGINEER BY PARAMETRIC TECHNOLOGY CORPORATION, 2013230','');
FILE_SCHEMA(('CONFIG_CONTROL_DESIGN'));
ENDSEC;
DATA;
#2=CARTESIAN_POINT('',(6.E0,0.E0,2.1415E2));
#3=DIRECTION('',(0.E0,-1.E0,0.E0));
#4=DIRECTION('',(1.E0,0.E0,0.E0));
#5=AXIS2_PLACEMENT_3D('',#2,#3,#4);
#7=DIRECTION('',(0.E0,0.E0,-1.E0));
#8=VECTOR('',#7,4.283E2);
#9=CARTESIAN_POINT('',(2.175E1,0.E0,2.1415E2));
#10=LINE('',#9,#8);
#11=CARTESIAN_POINT('',(6.E0,0.E0,-2.1415E2));
#12=DIRECTION('',(0.E0,-1.E0,0.E0));
#13=DIRECTION('',(0.E0,0.E0,-1.E0));
#14=AXIS2_PLACEMENT_3D('',#11,#12,#13);
#16=DIRECTION('',(-1.E0,0.E0,0.E0));
#17=VECTOR('',#16,1.2E1);
#18=CARTESIAN_POINT('',(6.E0,0.E0,-2.299E2));
#19=LINE('',#18,#17);
#20=CARTESIAN_POINT('',(-6.E0,0.E0,-2.1415E2));
#21=DIRECTION('',(0.E0,-1.E0,0.E0));
#22=DIRECTION('',(-1.E0,0.E0,0.E0));
#23=AXIS2_PLACEMENT_3D('',#20,#21,#22);
#25=DIRECTION('',(0.E0,0.E0,1.E0));
#26=VECTOR('',#25,4.283E2);
#27=CARTESIAN_POINT('',(-2.175E1,0.E0,-2.1415E2));
#28=LINE('',#27,#26);
#29=CARTESIAN_POINT('',(-6.E0,0.E0,2.1415E2));
#30=DIRECTION('',(0.E0,-1.E0,0.E0));
#31=DIRECTION('',(0.E0,0.E0,1.E0));
#32=AXIS2_PLACEMENT_3D('',#29,#30,#31);
#34=DIRECTION('',(1.E0,0.E0,0.E0));
#35=VECTOR('',#34,1.2E1);
#36=CARTESIAN_POINT('',(-6.E0,0.E0,2.299E2));
#37=LINE('',#36,#35);
#38=DIRECTION('',(0.E0,-1.E0,0.E0));
#39=VECTOR('',#38,3.E0);
#40=CARTESIAN_POINT('',(6.E0,3.E0,2.299E2));
#41=LINE('',#40,#39);
#42=DIRECTION('',(0.E0,-1.E0,0.E0));
#43=VECTOR('',#42,3.E0);
#44=CARTESIAN_POINT('',(-6.E0,3.E0,2.299E2));
#45=LINE('',#44,#43);
#46=DIRECTION('',(0.E0,-1.E0,0.E0));
#47=VECTOR('',#46,3.E0);
#48=CARTESIAN_POINT('',(-2.175E1,3.E0,2.1415E2));
#49=LINE('',#48,#47);
#50=DIRECTION('',(0.E0,-1.E0,0.E0));
#51=VECTOR('',#50,3.E0);
#52=CARTESIAN_POINT('',(-2.175E1,3.E0,-2.1415E2));
#53=LINE('',#52,#51);
#54=DIRECTION('',(0.E0,-1.E0,0.E0));
#55=VECTOR('',#54,3.E0);
#56=CARTESIAN_POINT('',(-6.E0,3.E0,-2.299E2));
#57=LINE('',#56,#55);
#58=DIRECTION('',(0.E0,-1.E0,0.E0));
#59=VECTOR('',#58,3.E0);
#60=CARTESIAN_POINT('',(6.E0,3.E0,-2.299E2));
#61=LINE('',#60,#59);
#62=DIRECTION('',(0.E0,-1.E0,0.E0));
#63=VECTOR('',#62,3.E0);
#64=CARTESIAN_POINT('',(2.175E1,3.E0,2.1415E2));
#65=LINE('',#64,#63);
#66=DIRECTION('',(0.E0,-1.E0,0.E0));
#67=VECTOR('',#66,3.E0);
#68=CARTESIAN_POINT('',(2.175E1,3.E0,-2.1415E2));
#69=LINE('',#68,#67);
#70=CARTESIAN_POINT('',(6.E0,3.E0,2.1415E2));
#71=DIRECTION('',(0.E0,1.E0,0.E0));
#72=DIRECTION('',(0.E0,0.E0,1.E0));
#73=AXIS2_PLACEMENT_3D('',#70,#71,#72);
#75=DIRECTION('',(1.E0,0.E0,0.E0));
#76=VECTOR('',#75,1.2E1);
#77=CARTESIAN_POINT('',(-6.E0,3.E0,2.299E2));
#78=LINE('',#77,#76);
#79=CARTESIAN_POINT('',(-6.E0,3.E0,2.1415E2));
#80=DIRECTION('',(0.E0,1.E0,0.E0));
#81=DIRECTION('',(-1.E0,0.E0,0.E0));
#82=AXIS2_PLACEMENT_3D('',#79,#80,#81);
#84=DIRECTION('',(0.E0,0.E0,1.E0));
#85=VECTOR('',#84,4.283E2);
#86=CARTESIAN_POINT('',(-2.175E1,3.E0,-2.1415E2));
#87=LINE('',#86,#85);
#88=CARTESIAN_POINT('',(-6.E0,3.E0,-2.1415E2));
#89=DIRECTION('',(0.E0,1.E0,0.E0));
#90=DIRECTION('',(0.E0,0.E0,-1.E0));
#91=AXIS2_PLACEMENT_3D('',#88,#89,#90);
#93=DIRECTION('',(-1.E0,0.E0,0.E0));
#94=VECTOR('',#93,1.2E1);
#95=CARTESIAN_POINT('',(6.E0,3.E0,-2.299E2));
#96=LINE('',#95,#94);
#97=CARTESIAN_POINT('',(6.E0,3.E0,-2.1415E2));
#98=DIRECTION('',(0.E0,1.E0,0.E0));
#99=DIRECTION('',(1.E0,0.E0,0.E0));
#100=AXIS2_PLACEMENT_3D('',#97,#98,#99);
#102=DIRECTION('',(0.E0,0.E0,-1.E0));
#103=VECTOR('',#102,4.283E2);
#104=CARTESIAN_POINT('',(2.175E1,3.E0,2.1415E2));
#105=LINE('',#104,#103);
#106=CARTESIAN_POINT('',(2.175E1,0.E0,2.1415E2));
#107=CARTESIAN_POINT('',(6.E0,0.E0,2.299E2));
#108=VERTEX_POINT('',#106);
#109=VERTEX_POINT('',#107);
#110=CARTESIAN_POINT('',(6.E0,3.E0,2.299E2));
#111=VERTEX_POINT('',#110);
#112=CARTESIAN_POINT('',(2.175E1,3.E0,2.1415E2));
#113=VERTEX_POINT('',#112);
#114=CARTESIAN_POINT('',(-6.E0,0.E0,2.299E2));
#115=CARTESIAN_POINT('',(-2.175E1,0.E0,2.1415E2));
#116=VERTEX_POINT('',#114);
#117=VERTEX_POINT('',#115);
#118=CARTESIAN_POINT('',(-2.175E1,3.E0,2.1415E2));
#119=VERTEX_POINT('',#118);
#120=CARTESIAN_POINT('',(-6.E0,3.E0,2.299E2));
#121=VERTEX_POINT('',#120);
#122=CARTESIAN_POINT('',(-2.175E1,0.E0,-2.1415E2));
#123=CARTESIAN_POINT('',(-6.E0,0.E0,-2.299E2));
#124=VERTEX_POINT('',#122);
#125=VERTEX_POINT('',#123);
#126=CARTESIAN_POINT('',(-6.E0,3.E0,-2.299E2));
#127=VERTEX_POINT('',#126);
#128=CARTESIAN_POINT('',(-2.175E1,3.E0,-2.1415E2));
#129=VERTEX_POINT('',#128);
#130=CARTESIAN_POINT('',(6.E0,0.E0,-2.299E2));
#131=CARTESIAN_POINT('',(2.175E1,0.E0,-2.1415E2));
#132=VERTEX_POINT('',#130);
#133=VERTEX_POINT('',#131);
#134=CARTESIAN_POINT('',(2.175E1,3.E0,-2.1415E2));
#135=VERTEX_POINT('',#134);
#136=CARTESIAN_POINT('',(6.E0,3.E0,-2.299E2));
#137=VERTEX_POINT('',#136);
#138=CARTESIAN_POINT('',(0.E0,0.E0,0.E0));
#139=DIRECTION('',(0.E0,1.E0,0.E0));
#140=DIRECTION('',(1.E0,0.E0,0.E0));
#141=AXIS2_PLACEMENT_3D('',#138,#139,#140);
#142=PLANE('',#141);
#144=ORIENTED_EDGE('',*,*,#143,.F.);
#146=ORIENTED_EDGE('',*,*,#145,.T.);
#148=ORIENTED_EDGE('',*,*,#147,.F.);
#150=ORIENTED_EDGE('',*,*,#149,.T.);
#152=ORIENTED_EDGE('',*,*,#151,.F.);
#154=ORIENTED_EDGE('',*,*,#153,.T.);
#156=ORIENTED_EDGE('',*,*,#155,.F.);
#158=ORIENTED_EDGE('',*,*,#157,.T.);
#159=EDGE_LOOP('',(#144,#146,#148,#150,#152,#154,#156,#158));
#160=FACE_OUTER_BOUND('',#159,.F.);
#161=ADVANCED_FACE('',(#160),#142,.F.);
#162=CARTESIAN_POINT('',(6.E0,3.794946712319E0,2.1415E2));
#163=DIRECTION('',(0.E0,-1.E0,0.E0));
#164=DIRECTION('',(1.E0,0.E0,0.E0));
#165=AXIS2_PLACEMENT_3D('',#162,#163,#164);
#166=CYLINDRICAL_SURFACE('',#165,1.575E1);
#167=ORIENTED_EDGE('',*,*,#143,.T.);
#169=ORIENTED_EDGE('',*,*,#168,.F.);
#171=ORIENTED_EDGE('',*,*,#170,.T.);
#173=ORIENTED_EDGE('',*,*,#172,.T.);
#174=EDGE_LOOP('',(#167,#169,#171,#173));
#175=FACE_OUTER_BOUND('',#174,.F.);
#176=ADVANCED_FACE('',(#175),#166,.T.);
#177=CARTESIAN_POINT('',(-2.175E1,0.E0,2.299E2));
#178=DIRECTION('',(0.E0,0.E0,1.E0));
#179=DIRECTION('',(1.E0,0.E0,0.E0));
#180=AXIS2_PLACEMENT_3D('',#177,#178,#179);
#181=PLANE('',#180);
#182=ORIENTED_EDGE('',*,*,#168,.T.);
#183=ORIENTED_EDGE('',*,*,#157,.F.);
#185=ORIENTED_EDGE('',*,*,#184,.F.);
#187=ORIENTED_EDGE('',*,*,#186,.T.);
#188=EDGE_LOOP('',(#182,#183,#185,#187));
#189=FACE_OUTER_BOUND('',#188,.F.);
#190=ADVANCED_FACE('',(#189),#181,.T.);
#191=CARTESIAN_POINT('',(-6.E0,3.794946712319E0,2.1415E2));
#192=DIRECTION('',(0.E0,-1.E0,0.E0));
#193=DIRECTION('',(0.E0,0.E0,1.E0));
#194=AXIS2_PLACEMENT_3D('',#191,#192,#193);
#195=CYLINDRICAL_SURFACE('',#194,1.575E1);
#196=ORIENTED_EDGE('',*,*,#155,.T.);
#198=ORIENTED_EDGE('',*,*,#197,.F.);
#200=ORIENTED_EDGE('',*,*,#199,.T.);
#201=ORIENTED_EDGE('',*,*,#184,.T.);
#202=EDGE_LOOP('',(#196,#198,#200,#201));
#203=FACE_OUTER_BOUND('',#202,.F.);
#204=ADVANCED_FACE('',(#203),#195,.T.);
#205=CARTESIAN_POINT('',(-2.175E1,0.E0,-2.299E2));
#206=DIRECTION('',(-1.E0,0.E0,0.E0));
#207=DIRECTION('',(0.E0,0.E0,1.E0));
#208=AXIS2_PLACEMENT_3D('',#205,#206,#207);
#209=PLANE('',#208);
#210=ORIENTED_EDGE('',*,*,#197,.T.);
#211=ORIENTED_EDGE('',*,*,#153,.F.);
#213=ORIENTED_EDGE('',*,*,#212,.F.);
#215=ORIENTED_EDGE('',*,*,#214,.T.);
#216=EDGE_LOOP('',(#210,#211,#213,#215));
#217=FACE_OUTER_BOUND('',#216,.F.);
#218=ADVANCED_FACE('',(#217),#209,.T.);
#219=CARTESIAN_POINT('',(-6.E0,3.794946712319E0,-2.1415E2));
#220=DIRECTION('',(0.E0,-1.E0,0.E0));
#221=DIRECTION('',(-1.E0,0.E0,0.E0));
#222=AXIS2_PLACEMENT_3D('',#219,#220,#221);
#223=CYLINDRICAL_SURFACE('',#222,1.575E1);
#224=ORIENTED_EDGE('',*,*,#151,.T.);
#226=ORIENTED_EDGE('',*,*,#225,.F.);
#228=ORIENTED_EDGE('',*,*,#227,.T.);
#229=ORIENTED_EDGE('',*,*,#212,.T.);
#230=EDGE_LOOP('',(#224,#226,#228,#229));
#231=FACE_OUTER_BOUND('',#230,.F.);
#232=ADVANCED_FACE('',(#231),#223,.T.);
#233=CARTESIAN_POINT('',(2.175E1,0.E0,-2.299E2));
#234=DIRECTION('',(0.E0,0.E0,-1.E0));
#235=DIRECTION('',(-1.E0,0.E0,0.E0));
#236=AXIS2_PLACEMENT_3D('',#233,#234,#235);
#237=PLANE('',#236);
#238=ORIENTED_EDGE('',*,*,#225,.T.);
#239=ORIENTED_EDGE('',*,*,#149,.F.);
#241=ORIENTED_EDGE('',*,*,#240,.F.);
#243=ORIENTED_EDGE('',*,*,#242,.T.);
#244=EDGE_LOOP('',(#238,#239,#241,#243));
#245=FACE_OUTER_BOUND('',#244,.F.);
#246=ADVANCED_FACE('',(#245),#237,.T.);
#247=CARTESIAN_POINT('',(6.E0,3.794946712319E0,-2.1415E2));
#248=DIRECTION('',(0.E0,-1.E0,0.E0));
#249=DIRECTION('',(0.E0,0.E0,-1.E0));
#250=AXIS2_PLACEMENT_3D('',#247,#248,#249);
#251=CYLINDRICAL_SURFACE('',#250,1.575E1);
#252=ORIENTED_EDGE('',*,*,#147,.T.);
#254=ORIENTED_EDGE('',*,*,#253,.F.);
#256=ORIENTED_EDGE('',*,*,#255,.T.);
#257=ORIENTED_EDGE('',*,*,#240,.T.);
#258=EDGE_LOOP('',(#252,#254,#256,#257));
#259=FACE_OUTER_BOUND('',#258,.F.);
#260=ADVANCED_FACE('',(#259),#251,.T.);
#261=CARTESIAN_POINT('',(2.175E1,0.E0,2.299E2));
#262=DIRECTION('',(1.E0,0.E0,0.E0));
#263=DIRECTION('',(0.E0,0.E0,-1.E0));
#264=AXIS2_PLACEMENT_3D('',#261,#262,#263);
#265=PLANE('',#264);
#266=ORIENTED_EDGE('',*,*,#172,.F.);
#268=ORIENTED_EDGE('',*,*,#267,.T.);
#269=ORIENTED_EDGE('',*,*,#253,.T.);
#270=ORIENTED_EDGE('',*,*,#145,.F.);
#271=EDGE_LOOP('',(#266,#268,#269,#270));
#272=FACE_OUTER_BOUND('',#271,.F.);
#273=ADVANCED_FACE('',(#272),#265,.T.);
#274=CARTESIAN_POINT('',(0.E0,3.E0,0.E0));
#275=DIRECTION('',(0.E0,1.E0,0.E0));
#276=DIRECTION('',(1.E0,0.E0,0.E0));
#277=AXIS2_PLACEMENT_3D('',#274,#275,#276);
#278=PLANE('',#277);
#279=ORIENTED_EDGE('',*,*,#170,.F.);
#280=ORIENTED_EDGE('',*,*,#186,.F.);
#281=ORIENTED_EDGE('',*,*,#199,.F.);
#282=ORIENTED_EDGE('',*,*,#214,.F.);
#283=ORIENTED_EDGE('',*,*,#227,.F.);
#284=ORIENTED_EDGE('',*,*,#242,.F.);
#285=ORIENTED_EDGE('',*,*,#255,.F.);
#286=ORIENTED_EDGE('',*,*,#267,.F.);
#287=EDGE_LOOP('',(#279,#280,#281,#282,#283,#284,#285,#286));
#288=FACE_OUTER_BOUND('',#287,.F.);
#289=ADVANCED_FACE('',(#288),#278,.T.);
#290=CLOSED_SHELL('',(#161,#176,#190,#204,#218,#232,#246,#260,#273,#289));
#291=MANIFOLD_SOLID_BREP('',#290);
#293=DIMENSIONAL_EXPONENTS(0.E0,0.E0,0.E0,0.E0,0.E0,0.E0,0.E0);
#295=PLANE_ANGLE_MEASURE_WITH_UNIT(PLANE_ANGLE_MEASURE(1.745329251994E-2),#294);
#296=(CONVERSION_BASED_UNIT('DEGREE',#295)NAMED_UNIT(*)PLANE_ANGLE_UNIT());
#298=UNCERTAINTY_MEASURE_WITH_UNIT(LENGTH_MEASURE(5.080180932511E-2),#292,
'closure',
'Maximum model space distance between geometric entities at asserted connectivities');
#299=(GEOMETRIC_REPRESENTATION_CONTEXT(3)GLOBAL_UNCERTAINTY_ASSIGNED_CONTEXT((
#298))GLOBAL_UNIT_ASSIGNED_CONTEXT((#292,#296,#297))REPRESENTATION_CONTEXT
('ID1','3'));
#300=CARTESIAN_POINT('',(0.E0,0.E0,0.E0));
#301=DIRECTION('',(0.E0,0.E0,1.E0));
#302=DIRECTION('',(1.E0,0.E0,0.E0));
#305=APPLICATION_CONTEXT(
'CONFIGURATION CONTROLLED 3D DESIGNS OF MECHANICAL PARTS AND ASSEMBLIES');
#306=APPLICATION_PROTOCOL_DEFINITION('international standard',
'config_control_design',1994,#305);
#307=DESIGN_CONTEXT('',#305,'design');
#308=MECHANICAL_CONTEXT('',#305,'mechanical');
#309=PRODUCT('156174','156174','NOT SPECIFIED',(#308));
#310=PRODUCT_DEFINITION_FORMATION_WITH_SPECIFIED_SOURCE('1','LAST_VERSION',#309,
.MADE.);
#319=CARTESIAN_POINT('',(0.E0,0.E0,0.E0));
#320=DIRECTION('',(0.E0,0.E0,1.E0));
#321=DIRECTION('',(1.E0,0.E0,0.E0));
#322=AXIS2_PLACEMENT_3D('',#319,#320,#321);
#323=ITEM_DEFINED_TRANSFORMATION('','',#303,#322);
#324=(REPRESENTATION_RELATIONSHIP('','',#304,#316)REPRESENTATION_RELATIONSHIP_WITH_TRANSFORMATION(#323)SHAPE_REPRESENTATION_RELATIONSHIP());
#325=CONTEXT_DEPENDENT_SHAPE_REPRESENTATION(#324,#318);
#327=DIMENSIONAL_EXPONENTS(0.E0,0.E0,0.E0,0.E0,0.E0,0.E0,0.E0);
#329=PLANE_ANGLE_MEASURE_WITH_UNIT(PLANE_ANGLE_MEASURE(1.745329251994E-2),#328);
#330=(CONVERSION_BASED_UNIT('DEGREE',#329)NAMED_UNIT(*)PLANE_ANGLE_UNIT());
#332=UNCERTAINTY_MEASURE_WITH_UNIT(LENGTH_MEASURE(4.618443730935E-2),#326,
'closure',
'Maximum model space distance between geometric entities at asserted connectivities');
#333=(GEOMETRIC_REPRESENTATION_CONTEXT(3)GLOBAL_UNCERTAINTY_ASSIGNED_CONTEXT((
#332))GLOBAL_UNIT_ASSIGNED_CONTEXT((#326,#330,#331))REPRESENTATION_CONTEXT
('ID2','3'));
#334=CARTESIAN_POINT('',(0.E0,0.E0,0.E0));
#335=DIRECTION('',(0.E0,0.E0,1.E0));
#336=DIRECTION('',(1.E0,0.E0,0.E0));
#338=MECHANICAL_CONTEXT('',#305,'mechanical');
#339=PRODUCT('192436_ASM','192436_ASM','NOT SPECIFIED',(#338));
#340=PRODUCT_DEFINITION_FORMATION_WITH_SPECIFIED_SOURCE('1','LAST_VERSION',#339,
.MADE.);
#342=PRODUCT_CATEGORY('part','');
#343=PRODUCT_RELATED_PRODUCT_CATEGORY('assembly','',(#339));
#344=PRODUCT_CATEGORY_RELATIONSHIP('','',#342,#343);
#345=PRODUCT_CATEGORY('part','');
#346=PRODUCT_RELATED_PRODUCT_CATEGORY('detail','',(#309));
#347=PRODUCT_CATEGORY_RELATIONSHIP('','',#345,#346);
#348=SECURITY_CLASSIFICATION_LEVEL('unclassified');
#349=SECURITY_CLASSIFICATION('','',#348);
#350=CC_DESIGN_SECURITY_CLASSIFICATION(#349,(#310,#340,#317));
#351=APPROVAL_STATUS('approved');
#352=APPROVAL(#351,'');
#353=CC_DESIGN_APPROVAL(#352,(#349,#310,#340,#311,#341));
#354=CALENDAR_DATE(115,23,12);
#355=COORDINATED_UNIVERSAL_TIME_OFFSET(6,0,.BEHIND.);
#356=LOCAL_TIME(10,21,2.1E1,#355);
#357=DATE_AND_TIME(#354,#356);
#358=APPROVAL_DATE_TIME(#357,#352);
#359=DATE_TIME_ROLE('creation_date');
#360=CC_DESIGN_DATE_AND_TIME_ASSIGNMENT(#357,#359,(#311,#341));
#361=DATE_TIME_ROLE('classification_date');
#362=CC_DESIGN_DATE_AND_TIME_ASSIGNMENT(#357,#361,(#349));
#363=PERSON('UNSPECIFIED','UNSPECIFIED',$,$,$,$);
#364=ORGANIZATION('UNSPECIFIED','UNSPECIFIED','UNSPECIFIED');
#365=PERSON_AND_ORGANIZATION(#363,#364);
#366=APPROVAL_ROLE('approver');
#367=APPROVAL_PERSON_ORGANIZATION(#365,#352,#366);
#368=PERSON_AND_ORGANIZATION_ROLE('creator');
#369=CC_DESIGN_PERSON_AND_ORGANIZATION_ASSIGNMENT(#365,#368,(#310,#340,#311,
#341));
#370=PERSON_AND_ORGANIZATION_ROLE('design_supplier');
#371=CC_DESIGN_PERSON_AND_ORGANIZATION_ASSIGNMENT(#365,#370,(#310,#340));
#372=PERSON_AND_ORGANIZATION_ROLE('classification_officer');
#373=CC_DESIGN_PERSON_AND_ORGANIZATION_ASSIGNMENT(#365,#372,(#349));
#374=PERSON_AND_ORGANIZATION_ROLE('design_owner');
#375=CC_DESIGN_PERSON_AND_ORGANIZATION_ASSIGNMENT(#365,#374,(#339,#309));
#6=CIRCLE('',#5,1.575E1);
#15=CIRCLE('',#14,1.575E1);
#24=CIRCLE('',#23,1.575E1);
#33=CIRCLE('',#32,1.575E1);
#74=CIRCLE('',#73,1.575E1);
#83=CIRCLE('',#82,1.575E1);
#92=CIRCLE('',#91,1.575E1);
#101=CIRCLE('',#100,1.575E1);
#143=EDGE_CURVE('',#108,#109,#6,.T.);
#145=EDGE_CURVE('',#108,#133,#10,.T.);
#147=EDGE_CURVE('',#132,#133,#15,.T.);
#149=EDGE_CURVE('',#132,#125,#19,.T.);
#151=EDGE_CURVE('',#124,#125,#24,.T.);
#153=EDGE_CURVE('',#124,#117,#28,.T.);
#155=EDGE_CURVE('',#116,#117,#33,.T.);
#157=EDGE_CURVE('',#116,#109,#37,.T.);
#168=EDGE_CURVE('',#111,#109,#41,.T.);
#170=EDGE_CURVE('',#111,#113,#74,.T.);
#172=EDGE_CURVE('',#113,#108,#65,.T.);
#184=EDGE_CURVE('',#121,#116,#45,.T.);
#186=EDGE_CURVE('',#121,#111,#78,.T.);
#197=EDGE_CURVE('',#119,#117,#49,.T.);
#199=EDGE_CURVE('',#119,#121,#83,.T.);
#212=EDGE_CURVE('',#129,#124,#53,.T.);
#214=EDGE_CURVE('',#129,#119,#87,.T.);
#225=EDGE_CURVE('',#127,#125,#57,.T.);
#227=EDGE_CURVE('',#127,#129,#92,.T.);
#240=EDGE_CURVE('',#137,#132,#61,.T.);
#242=EDGE_CURVE('',#137,#127,#96,.T.);
#253=EDGE_CURVE('',#135,#133,#69,.T.);
#255=EDGE_CURVE('',#135,#137,#101,.T.);
#267=EDGE_CURVE('',#113,#135,#105,.T.);
#292=(LENGTH_UNIT()NAMED_UNIT(*)SI_UNIT(.MILLI.,.METRE.));
#294=(NAMED_UNIT(*)PLANE_ANGLE_UNIT()SI_UNIT($,.RADIAN.));
#297=(NAMED_UNIT(*)SI_UNIT($,.STERADIAN.)SOLID_ANGLE_UNIT());
#303=AXIS2_PLACEMENT_3D('',#300,#301,#302);
#304=ADVANCED_BREP_SHAPE_REPRESENTATION('',(#303,#291),#299);
#311=PRODUCT_DEFINITION('design','',#310,#307);
#312=PRODUCT_DEFINITION_SHAPE('','SHAPE FOR 156174.',#311);
#313=SHAPE_DEFINITION_REPRESENTATION(#312,#304);
#314=SHAPE_DEFINITION_REPRESENTATION(#315,#316);
#315=PRODUCT_DEFINITION_SHAPE('','SHAPE FOR 192436_ASM.',#341);
#316=SHAPE_REPRESENTATION('',(#322,#337),#333);
#317=NEXT_ASSEMBLY_USAGE_OCCURRENCE('0','Next assembly relationship','156174',
#341,#311,$);
#318=PRODUCT_DEFINITION_SHAPE('Placement #0',
'Placement of 156174 with respect to 192436_ASM',#317);
#326=(LENGTH_UNIT()NAMED_UNIT(*)SI_UNIT(.MILLI.,.METRE.));
#328=(NAMED_UNIT(*)PLANE_ANGLE_UNIT()SI_UNIT($,.RADIAN.));
#331=(NAMED_UNIT(*)SI_UNIT($,.STERADIAN.)SOLID_ANGLE_UNIT());
#337=AXIS2_PLACEMENT_3D('',#334,#335,#336);
#341=PRODUCT_DEFINITION('design','',#340,#307);
ENDSEC;
END-ISO-10303-21;
