 PTC IGES file: 192436.igs                                              S      1
1H,,1H;,10H192436_ASM,10H192436.igs,                                    G      1
52HCreo Parametric by Parametric Technology Corporation,7H2013230,32,   G      2
38,7,38,15,10H192436_ASM,1.,2,2HMM,32768,0.5,15H20151223.102121,        G      3
0.0461844,461.863,8Hpdmadmin,7HUnknown,10,0,15H20151223.102121;         G      4
     314       1       1       1       0       0       0       001000200D      1
     314       0       4       1       0                   COLOR       1D      2
     314       2       1       1       0       0       0       001000200D      3
     314       0       1       1       0                   COLOR       2D      4
     314       3       1       1       0       0       0       001000200D      5
     314       0       1       1       0                   COLOR       3D      6
     314       4       1       1       0       0       0       001000200D      7
     314       0       8       1       0                   COLOR       4D      8
     314       5       1       1       0       0       0       001000200D      9
     314       0       8       1       0                   COLOR       5D     10
     314       6       1       1       0       0       0       001000200D     11
     314       0       8       1       0                   COLOR       6D     12
     314       7       1       1       0       0       0       001000200D     13
     314       0       8       1       0                   COLOR       7D     14
     314       8       1       1       0       0       0       001000200D     15
     314       0       5       1       0                   COLOR       8D     16
     314       9       1       1       0       0       0       001000200D     17
     314       0       8       1       0                   COLOR       9D     18
     124      10       1       1       0       0       0       001000000D     19
     124       0       0       1       0                   XFORM       1D     20
     100      11       1       1  156174       0      19       001010000D     21
     100       0       8       1       0                     ARC       1D     22
     110      12       1       1  156174       0       0       001010000D     23
     110       0       8       1       0                    LINE       1D     24
     124      13       1       1       0       0       0       001000000D     25
     124       0       0       1       0                   XFORM       2D     26
     100      14       1       1  156174       0      25       001010000D     27
     100       0       8       1       0                     ARC       2D     28
     110      15       1       1  156174       0       0       001010000D     29
     110       0       8       1       0                    LINE       2D     30
     124      16       1       1       0       0       0       001000000D     31
     124       0       0       1       0                   XFORM       3D     32
     100      17       1       1  156174       0      31       001010000D     33
     100       0       8       1       0                     ARC       3D     34
     110      18       1       1  156174       0       0       001010000D     35
     110       0       8       1       0                    LINE       3D     36
     124      19       1       1       0       0       0       001000000D     37
     124       0       0       1       0                   XFORM       4D     38
     100      20       1       1  156174       0      37       001010000D     39
     100       0       8       1       0                     ARC       4D     40
     110      21       1       1  156174       0       0       001010000D     41
     110       0       8       1       0                    LINE       4D     42
     110      22       1       1  156174       0       0       001010000D     43
     110       0       8       1       0                    LINE       5D     44
     110      23       1       1  156174       0       0       001010000D     45
     110       0       8       1       0                    LINE       6D     46
     110      24       1       1  156174       0       0       001010000D     47
     110       0       8       1       0                    LINE       7D     48
     110      25       1       1  156174       0       0       001010000D     49
     110       0       8       1       0                    LINE       8D     50
     110      26       1       1  156174       0       0       001010000D     51
     110       0       8       1       0                    LINE       9D     52
     110      27       1       1  156174       0       0       001010000D     53
     110       0       8       1       0                    LINE      10D     54
     110      28       1       1  156174       0       0       001010000D     55
     110       0       8       1       0                    LINE      11D     56
     110      29       1       1  156174       0       0       001010000D     57
     110       0       8       1       0                    LINE      12D     58
     124      30       1       1       0       0       0       001000000D     59
     124       0       0       1       0                   XFORM       5D     60
     100      31       1       1  156174       0      59       001010000D     61
     100       0       8       1       0                     ARC       5D     62
     110      32       1       1  156174       0       0       001010000D     63
     110       0       8       1       0                    LINE      13D     64
     124      33       1       1       0       0       0       001000000D     65
     124       0       0       1       0                   XFORM       6D     66
     100      34       1       1  156174       0      65       001010000D     67
     100       0       8       1       0                     ARC       6D     68
     110      35       1       1  156174       0       0       001010000D     69
     110       0       8       1       0                    LINE      14D     70
     124      36       1       1       0       0       0       001000000D     71
     124       0       0       1       0                   XFORM       7D     72
     100      37       1       1  156174       0      71       001010000D     73
     100       0       8       1       0                     ARC       7D     74
     110      38       1       1  156174       0       0       001010000D     75
     110       0       8       1       0                    LINE      15D     76
     124      39       1       1       0       0       0       001000000D     77
     124       0       0       1       0                   XFORM       8D     78
     100      40       1       1  156174       0      77       001010000D     79
     100       0       8       1       0                     ARC       8D     80
     110      41       1       1  156174       0       0       001010000D     81
     110       0       8       1       0                    LINE      16D     82
     502      42       1       1  156174       0       0       001010000D     83
     502       0       8       6       1                  VERTEX       1D     84
     504      48       1       1  156174       0       0       000010001D     85
     504       0       8       6       1                    EDGE       1D     86
     128      54       1       1  156174       0       0       001010000D     87
     128       0       8       5       0                  SPLSRF       1D     88
     508      59       1       1  156174       0       0       001010000D     89
     508       0       0       2       1                EDGELOOP       1D     90
     510      61       1       1  156174       0       0       000010000D     91
     510       0       8       1       1                    FACE       1D     92
     110      62       1       1  156174       0       0       001010000D     93
     110       0       8       1       0                    LINE      17D     94
     110      63       1       1  156174       0       0       001010000D     95
     110       0       8       2       0                    LINE      18D     96
     120      65       1       1  156174       0       0       001010000D     97
     120       0       8       1       0                    SREV       1D     98
     508      66       1       1  156174       0       0       001010000D     99
     508       0       0       1       1                EDGELOOP       2D    100
     510      67       1       1  156174       0       0       000010000D    101
     510       0       8       1       1                    FACE       2D    102
     128      68       1       1  156174       0       0       001010000D    103
     128       0       8       8       0                  SPLSRF       2D    104
     508      76       1       1  156174       0       0       001010000D    105
     508       0       0       1       1                EDGELOOP       3D    106
     510      77       1       1  156174       0       0       000010000D    107
     510       0       8       1       1                    FACE       3D    108
     110      78       1       1  156174       0       0       001010000D    109
     110       0       8       2       0                    LINE      19D    110
     110      80       1       1  156174       0       0       001010000D    111
     110       0       8       2       0                    LINE      20D    112
     120      82       1       1  156174       0       0       001010000D    113
     120       0       8       1       0                    SREV       2D    114
     508      83       1       1  156174       0       0       001010000D    115
     508       0       0       1       1                EDGELOOP       4D    116
     510      84       1       1  156174       0       0       000010000D    117
     510       0       8       1       1                    FACE       4D    118
     128      85       1       1  156174       0       0       001010000D    119
     128       0       8       6       0                  SPLSRF       3D    120
     508      91       1       1  156174       0       0       001010000D    121
     508       0       0       1       1                EDGELOOP       5D    122
     510      92       1       1  156174       0       0       000010000D    123
     510       0       8       1       1                    FACE       5D    124
     110      93       1       1  156174       0       0       001010000D    125
     110       0       8       2       0                    LINE      21D    126
     110      95       1       1  156174       0       0       001010000D    127
     110       0       8       2       0                    LINE      22D    128
     120      97       1       1  156174       0       0       001010000D    129
     120       0       8       1       0                    SREV       3D    130
     508      98       1       1  156174       0       0       001010000D    131
     508       0       0       1       1                EDGELOOP       6D    132
     510      99       1       1  156174       0       0       000010000D    133
     510       0       8       1       1                    FACE       6D    134
     128     100       1       1  156174       0       0       001010000D    135
     128       0       8       8       0                  SPLSRF       4D    136
     508     108       1       1  156174       0       0       001010000D    137
     508       0       0       1       1                EDGELOOP       7D    138
     510     109       1       1  156174       0       0       000010000D    139
     510       0       8       1       1                    FACE       7D    140
     110     110       1       1  156174       0       0       001010000D    141
     110       0       8       2       0                    LINE      23D    142
     110     112       1       1  156174       0       0       001010000D    143
     110       0       8       2       0                    LINE      24D    144
     120     114       1       1  156174       0       0       001010000D    145
     120       0       8       1       0                    SREV       4D    146
     508     115       1       1  156174       0       0       001010000D    147
     508       0       0       1       1                EDGELOOP       8D    148
     510     116       1       1  156174       0       0       000010000D    149
     510       0       8       1       1                    FACE       8D    150
     128     117       1       1  156174       0       0       001010000D    151
     128       0       8       6       0                  SPLSRF       5D    152
     508     123       1       1  156174       0       0       001010000D    153
     508       0       0       1       1                EDGELOOP       9D    154
     510     124       1       1  156174       0       0       000010000D    155
     510       0       8       1       1                    FACE       9D    156
     128     125       1       1  156174       0       0       001010000D    157
     128       0       8       5       0                  SPLSRF       6D    158
     508     130       1       1  156174       0       0       001010000D    159
     508       0       0       2       1                EDGELOOP      10D    160
     510     132       1       1  156174       0       0       000010000D    161
     510       0       8       1       1                    FACE      10D    162
     514     133       1       1  156174       0       0       000010000D    163
     514       0       8       2       1                   SHELL       1D    164
     186     135       1       1       0       0       0       000000000D    165
     186       0       8       1       0                    MSBR       1D    166
     406     136       1       1       0       0       0       001000000D    167
     406       0       0       1      15                    PROP       1D    168
     402     137       1       1       0       0       0       000000300D    169
     402       0       0       4       7                   LAYER       1D    170
314,1.1D0,1.2D0,1D2;                                                   1P      1
314,3.92D1,1.2D0,1.2D0;                                                3P      2
314,4.1D1,0D0,2.2D1;                                                   5P      3
314,6.952D1,7.426D1,7.9D1;                                             7P      4
314,7.84314D1,7.84314D1,7.84314D1;                                     9P      5
314,8.784D1,9.49D1,1D2;                                               11P      6
314,9.6D1,9.6D1,9.6D1;                                                13P      7
314,9.8D1,6.27D1,0D0;                                                 15P      8
314,1D2,1D2,9.49D1;                                                   17P      9
124,1D0,0D0,0D0,6D0,0D0,0D0,-1D0,0D0,0D0,1D0,0D0,2.1415D2;            19P     10
100,0D0,0D0,0D0,1.575D1,0D0,0D0,1.575D1;                              21P     11
110,2.175D1,0D0,2.1415D2,2.175D1,0D0,-2.1415D2;                       23P     12
124,0D0,1D0,0D0,6D0,0D0,0D0,-1D0,0D0,-1D0,0D0,0D0,-2.1415D2;          25P     13
100,0D0,0D0,0D0,1.575D1,0D0,0D0,1.575D1;                              27P     14
110,6D0,0D0,-2.299D2,-6D0,0D0,-2.299D2;                               29P     15
124,-1D0,0D0,0D0,-6D0,0D0,0D0,-1D0,0D0,0D0,-1D0,0D0,-2.1415D2;        31P     16
100,0D0,0D0,0D0,1.575D1,0D0,0D0,1.575D1;                              33P     17
110,-2.175D1,0D0,-2.1415D2,-2.175D1,0D0,2.1415D2;                     35P     18
124,0D0,-1D0,0D0,-6D0,0D0,0D0,-1D0,0D0,1D0,0D0,0D0,2.1415D2;          37P     19
100,0D0,0D0,0D0,1.575D1,0D0,0D0,1.575D1;                              39P     20
110,-6D0,0D0,2.299D2,6D0,0D0,2.299D2;                                 41P     21
110,6D0,3D0,2.299D2,6D0,0D0,2.299D2;                                  43P     22
110,-6D0,3D0,2.299D2,-6D0,0D0,2.299D2;                                45P     23
110,-2.175D1,3D0,2.1415D2,-2.175D1,0D0,2.1415D2;                      47P     24
110,-2.175D1,3D0,-2.1415D2,-2.175D1,0D0,-2.1415D2;                    49P     25
110,-6D0,3D0,-2.299D2,-6D0,0D0,-2.299D2;                              51P     26
110,6D0,3D0,-2.299D2,6D0,0D0,-2.299D2;                                53P     27
110,2.175D1,3D0,2.1415D2,2.175D1,0D0,2.1415D2;                        55P     28
110,2.175D1,3D0,-2.1415D2,2.175D1,0D0,-2.1415D2;                      57P     29
124,0D0,1D0,0D0,6D0,0D0,0D0,1D0,3D0,1D0,0D0,0D0,2.1415D2;             59P     30
100,0D0,0D0,0D0,1.575D1,0D0,0D0,1.575D1;                              61P     31
110,-6D0,3D0,2.299D2,6D0,3D0,2.299D2;                                 63P     32
124,-1D0,0D0,0D0,-6D0,0D0,0D0,1D0,3D0,0D0,1D0,0D0,2.1415D2;           65P     33
100,0D0,0D0,0D0,1.575D1,0D0,0D0,1.575D1;                              67P     34
110,-2.175D1,3D0,-2.1415D2,-2.175D1,3D0,2.1415D2;                     69P     35
124,0D0,-1D0,0D0,-6D0,0D0,0D0,1D0,3D0,-1D0,0D0,0D0,-2.1415D2;         71P     36
100,0D0,0D0,0D0,1.575D1,0D0,0D0,1.575D1;                              73P     37
110,6D0,3D0,-2.299D2,-6D0,3D0,-2.299D2;                               75P     38
124,1D0,0D0,0D0,6D0,0D0,0D0,1D0,3D0,0D0,-1D0,0D0,-2.1415D2;           77P     39
100,0D0,0D0,0D0,1.575D1,0D0,0D0,1.575D1;                              79P     40
110,2.175D1,3D0,2.1415D2,2.175D1,3D0,-2.1415D2;                       81P     41
502,16,2.175D1,0D0,2.1415D2,6D0,0D0,2.299D2,6D0,3D0,2.299D2,          83P     42
2.175D1,3D0,2.1415D2,-6D0,0D0,2.299D2,-2.175D1,0D0,2.1415D2,          83P     43
-2.175D1,3D0,2.1415D2,-6D0,3D0,2.299D2,-2.175D1,0D0,-2.1415D2,        83P     44
-6D0,0D0,-2.299D2,-6D0,3D0,-2.299D2,-2.175D1,3D0,-2.1415D2,6D0,       83P     45
0D0,-2.299D2,2.175D1,0D0,-2.1415D2,2.175D1,3D0,-2.1415D2,6D0,         83P     46
3D0,-2.299D2;                                                         83P     47
504,24,21,83,1,83,2,43,83,3,83,2,61,83,3,83,4,55,83,4,83,1,39,        85P     48
83,5,83,6,47,83,7,83,6,67,83,7,83,8,45,83,8,83,5,33,83,9,83,10,       85P     49
51,83,11,83,10,73,83,11,83,12,49,83,12,83,9,27,83,13,83,14,57,        85P     50
83,15,83,14,79,83,15,83,16,53,83,16,83,13,35,83,9,83,6,41,83,5,       85P     51
83,2,23,83,1,83,14,29,83,13,83,10,69,83,12,83,7,63,83,8,83,3,81,      85P     52
83,4,83,15,75,83,16,83,11;                                            85P     53
128,1,1,1,1,0,0,1,0,0,-2.262D1,-2.262D1,2.262D1,2.262D1,              87P     54
-2.39096D2,-2.39096D2,2.39096D2,2.39096D2,1D0,1D0,1D0,1D0,            87P     55
-2.262D1,0D0,2.39096D2,2.262D1,0D0,2.39096D2,-2.262D1,0D0,            87P     56
-2.39096D2,2.262D1,0D0,-2.39096D2,-2.262D1,2.262D1,-2.39096D2,        87P     57
2.39096D2;                                                            87P     58
508,8,0,85,1,0,0,0,85,19,1,0,0,85,13,0,0,0,85,20,1,0,0,85,9,0,0,      89P     59
0,85,17,1,0,0,85,5,0,0,0,85,18,1,0;                                   89P     60
510,87,1,0,89;                                                        91P     61
110,6D0,3.794946712319D0,2.1415D2,6D0,2.794946712319D0,2.1415D2;      93P     62
110,2.175D1,3.609646097745D0,2.1415D2,2.175D1,                        95P     63
-6.096460977452D-1,2.1415D2;                                          95P     64
120,93,95,-3.870768874573D-2,1.609504015541D0;                        97P     65
508,4,0,85,1,1,0,0,85,2,0,0,0,85,3,1,0,0,85,4,1,0;                    99P     66
510,97,1,0,99;                                                       101P     67
128,1,1,1,1,0,0,1,0,0,1.514035390225D1,1.514035390225D1,             103P     68
2.835964609775D1,2.835964609775D1,-6.096460977452D-1,                103P     69
-6.096460977452D-1,3.609646097745D0,3.609646097745D0,1D0,1D0,        103P     70
1D0,1D0,-6.609646097745D0,-6.096460977452D-1,2.299D2,                103P     71
6.609646097745D0,-6.096460977452D-1,2.299D2,-6.609646097745D0,       103P     72
3.609646097745D0,2.299D2,6.609646097745D0,3.609646097745D0,          103P     73
2.299D2,1.514035390225D1,2.835964609775D1,-6.096460977452D-1,        103P     74
3.609646097745D0;                                                    103P     75
508,4,0,85,2,1,0,0,85,18,0,0,0,85,8,0,0,0,85,22,1,0;                 105P     76
510,103,1,0,105;                                                     107P     77
110,-6D0,3.794946712319D0,2.1415D2,-6D0,2.794946712319D0,            109P     78
2.1415D2;                                                            109P     79
110,-6D0,3.609646097745D0,2.299D2,-6D0,-6.096460977452D-1,           111P     80
2.299D2;                                                             111P     81
120,109,111,-3.870768874573D-2,1.609504015541D0;                     113P     82
508,4,0,85,5,1,0,0,85,6,0,0,0,85,7,1,0,0,85,8,1,0;                   115P     83
510,113,1,0,115;                                                     117P     84
128,1,1,1,1,0,0,1,0,0,7.184D0,7.184D0,4.52616D2,4.52616D2,           119P     85
-6.096460977452D-1,-6.096460977452D-1,3.609646097745D0,              119P     86
3.609646097745D0,1D0,1D0,1D0,1D0,-2.175D1,-6.096460977452D-1,        119P     87
-2.22716D2,-2.175D1,-6.096460977452D-1,2.22716D2,-2.175D1,           119P     88
3.609646097745D0,-2.22716D2,-2.175D1,3.609646097745D0,2.22716D2,     119P     89
7.184D0,4.52616D2,-6.096460977452D-1,3.609646097745D0;               119P     90
508,4,0,85,6,1,0,0,85,17,0,0,0,85,12,0,0,0,85,21,1,0;                121P     91
510,119,1,0,121;                                                     123P     92
110,-6D0,3.794946712319D0,-2.1415D2,-6D0,2.794946712319D0,           125P     93
-2.1415D2;                                                           125P     94
110,-2.175D1,3.609646097745D0,-2.1415D2,-2.175D1,                    127P     95
-6.096460977452D-1,-2.1415D2;                                        127P     96
120,125,127,-3.870768874573D-2,1.609504015541D0;                     129P     97
508,4,0,85,9,1,0,0,85,10,0,0,0,85,11,1,0,0,85,12,1,0;                131P     98
510,129,1,0,131;                                                     133P     99
128,1,1,1,1,0,0,1,0,0,1.514035390225D1,1.514035390225D1,             135P    100
2.835964609775D1,2.835964609775D1,-6.096460977452D-1,                135P    101
-6.096460977452D-1,3.609646097745D0,3.609646097745D0,1D0,1D0,        135P    102
1D0,1D0,6.609646097745D0,-6.096460977452D-1,-2.299D2,                135P    103
-6.609646097745D0,-6.096460977452D-1,-2.299D2,6.609646097745D0,      135P    104
3.609646097745D0,-2.299D2,-6.609646097745D0,3.609646097745D0,        135P    105
-2.299D2,1.514035390225D1,2.835964609775D1,-6.096460977452D-1,       135P    106
3.609646097745D0;                                                    135P    107
508,4,0,85,10,1,0,0,85,20,0,0,0,85,16,0,0,0,85,24,1,0;               137P    108
510,135,1,0,137;                                                     139P    109
110,6D0,3.794946712319D0,-2.1415D2,6D0,2.794946712319D0,             141P    110
-2.1415D2;                                                           141P    111
110,6D0,3.609646097745D0,-2.299D2,6D0,-6.096460977452D-1,            143P    112
-2.299D2;                                                            143P    113
120,141,143,-3.870768874573D-2,1.609504015541D0;                     145P    114
508,4,0,85,13,1,0,0,85,14,0,0,0,85,15,1,0,0,85,16,1,0;               147P    115
510,145,1,0,147;                                                     149P    116
128,1,1,1,1,0,0,1,0,0,7.184D0,7.184D0,4.52616D2,4.52616D2,           151P    117
-6.096460977452D-1,-6.096460977452D-1,3.609646097745D0,              151P    118
3.609646097745D0,1D0,1D0,1D0,1D0,2.175D1,-6.096460977452D-1,         151P    119
2.22716D2,2.175D1,-6.096460977452D-1,-2.22716D2,2.175D1,             151P    120
3.609646097745D0,2.22716D2,2.175D1,3.609646097745D0,-2.22716D2,      151P    121
7.184D0,4.52616D2,-6.096460977452D-1,3.609646097745D0;               151P    122
508,4,0,85,4,0,0,0,85,23,1,0,0,85,14,1,0,0,85,19,0,0;                153P    123
510,151,1,0,153;                                                     155P    124
128,1,1,1,1,0,0,1,0,0,-2.262D1,-2.262D1,2.262D1,2.262D1,             157P    125
-2.39096D2,-2.39096D2,2.39096D2,2.39096D2,1D0,1D0,1D0,1D0,           157P    126
-2.262D1,3D0,2.39096D2,2.262D1,3D0,2.39096D2,-2.262D1,3D0,           157P    127
-2.39096D2,2.262D1,3D0,-2.39096D2,-2.262D1,2.262D1,-2.39096D2,       157P    128
2.39096D2;                                                           157P    129
508,8,0,85,3,0,0,0,85,22,0,0,0,85,7,0,0,0,85,21,0,0,0,85,11,0,0,     159P    130
0,85,24,0,0,0,85,15,0,0,0,85,23,0,0;                                 159P    131
510,157,1,0,159;                                                     161P    132
514,10,91,0,101,1,107,1,117,1,123,1,133,1,139,1,149,1,155,1,161,     163P    133
1;                                                                   163P    134
186,163,1,0;                                                         165P    135
406,1,6H156174;                                                      167P    136
402,66,21,23,27,29,33,35,39,41,43,45,47,49,51,53,55,57,61,63,67,     169P    137
69,73,75,79,81,83,85,87,89,91,93,95,97,99,101,103,105,107,109,       169P    138
111,113,115,117,119,121,123,125,127,129,131,133,135,137,139,141,     169P    139
143,145,147,149,151,153,155,157,159,161,163,165,0,1,167;             169P    140
S      1G      4D    170P    140                                        T      1
