ISO-10303-21;
HEADER;
FILE_DESCRIPTION((''),'2;1');
FILE_NAME('192319_ASM','2015-12-18T',('pdmadmin'),(''),
'PRO/ENGINEER BY PARAMETRIC TECHNOLOGY CORPORATION, 2013230',
'PRO/ENGINEER BY PARAMETRIC TECHNOLOGY CORPORATION, 2013230','');
FILE_SCHEMA(('CONFIG_CONTROL_DESIGN'));
ENDSEC;
DATA;
#2=CARTESIAN_POINT('',(0.E0,0.E0,0.E0));
#3=DIRECTION('',(0.E0,1.E0,0.E0));
#4=DIRECTION('',(1.E0,0.E0,0.E0));
#5=AXIS2_PLACEMENT_3D('',#2,#3,#4);
#7=CARTESIAN_POINT('',(0.E0,0.E0,0.E0));
#8=DIRECTION('',(0.E0,1.E0,0.E0));
#9=DIRECTION('',(-1.E0,0.E0,0.E0));
#10=AXIS2_PLACEMENT_3D('',#7,#8,#9);
#12=CARTESIAN_POINT('',(0.E0,0.E0,0.E0));
#13=DIRECTION('',(0.E0,-1.E0,0.E0));
#14=DIRECTION('',(1.E0,0.E0,0.E0));
#15=AXIS2_PLACEMENT_3D('',#12,#13,#14);
#17=CARTESIAN_POINT('',(0.E0,0.E0,0.E0));
#18=DIRECTION('',(0.E0,-1.E0,0.E0));
#19=DIRECTION('',(-1.E0,0.E0,0.E0));
#20=AXIS2_PLACEMENT_3D('',#17,#18,#19);
#22=DIRECTION('',(0.E0,1.E0,0.E0));
#23=VECTOR('',#22,1.57E0);
#24=CARTESIAN_POINT('',(1.45E1,0.E0,0.E0));
#25=LINE('',#24,#23);
#26=DIRECTION('',(0.E0,1.E0,0.E0));
#27=VECTOR('',#26,1.57E0);
#28=CARTESIAN_POINT('',(-1.45E1,0.E0,0.E0));
#29=LINE('',#28,#27);
#30=CARTESIAN_POINT('',(0.E0,1.57E0,0.E0));
#31=DIRECTION('',(0.E0,1.E0,0.E0));
#32=DIRECTION('',(1.E0,0.E0,0.E0));
#33=AXIS2_PLACEMENT_3D('',#30,#31,#32);
#35=CARTESIAN_POINT('',(0.E0,1.57E0,0.E0));
#36=DIRECTION('',(0.E0,1.E0,0.E0));
#37=DIRECTION('',(-1.E0,0.E0,0.E0));
#38=AXIS2_PLACEMENT_3D('',#35,#36,#37);
#40=CARTESIAN_POINT('',(0.E0,1.57E0,0.E0));
#41=DIRECTION('',(0.E0,-1.E0,0.E0));
#42=DIRECTION('',(1.E0,0.E0,0.E0));
#43=AXIS2_PLACEMENT_3D('',#40,#41,#42);
#45=CARTESIAN_POINT('',(0.E0,1.57E0,0.E0));
#46=DIRECTION('',(0.E0,-1.E0,0.E0));
#47=DIRECTION('',(-1.E0,0.E0,0.E0));
#48=AXIS2_PLACEMENT_3D('',#45,#46,#47);
#50=DIRECTION('',(0.E0,1.E0,0.E0));
#51=VECTOR('',#50,1.57E0);
#52=CARTESIAN_POINT('',(1.085E1,0.E0,0.E0));
#53=LINE('',#52,#51);
#54=DIRECTION('',(0.E0,1.E0,0.E0));
#55=VECTOR('',#54,1.57E0);
#56=CARTESIAN_POINT('',(-1.085E1,0.E0,0.E0));
#57=LINE('',#56,#55);
#58=CARTESIAN_POINT('',(1.45E1,0.E0,0.E0));
#59=CARTESIAN_POINT('',(-1.45E1,0.E0,0.E0));
#60=VERTEX_POINT('',#58);
#61=VERTEX_POINT('',#59);
#62=CARTESIAN_POINT('',(1.085E1,0.E0,0.E0));
#63=CARTESIAN_POINT('',(-1.085E1,0.E0,0.E0));
#64=VERTEX_POINT('',#62);
#65=VERTEX_POINT('',#63);
#66=CARTESIAN_POINT('',(1.45E1,1.57E0,0.E0));
#67=CARTESIAN_POINT('',(-1.45E1,1.57E0,0.E0));
#68=VERTEX_POINT('',#66);
#69=VERTEX_POINT('',#67);
#70=CARTESIAN_POINT('',(1.085E1,1.57E0,0.E0));
#71=CARTESIAN_POINT('',(-1.085E1,1.57E0,0.E0));
#72=VERTEX_POINT('',#70);
#73=VERTEX_POINT('',#71);
#74=CARTESIAN_POINT('',(0.E0,0.E0,0.E0));
#75=DIRECTION('',(0.E0,1.E0,0.E0));
#76=DIRECTION('',(1.E0,0.E0,0.E0));
#77=AXIS2_PLACEMENT_3D('',#74,#75,#76);
#78=PLANE('',#77);
#80=ORIENTED_EDGE('',*,*,#79,.T.);
#82=ORIENTED_EDGE('',*,*,#81,.T.);
#83=EDGE_LOOP('',(#80,#82));
#84=FACE_OUTER_BOUND('',#83,.F.);
#86=ORIENTED_EDGE('',*,*,#85,.T.);
#88=ORIENTED_EDGE('',*,*,#87,.T.);
#89=EDGE_LOOP('',(#86,#88));
#90=FACE_BOUND('',#89,.F.);
#91=ADVANCED_FACE('',(#84,#90),#78,.F.);
#92=CARTESIAN_POINT('',(0.E0,0.E0,0.E0));
#93=DIRECTION('',(0.E0,1.E0,0.E0));
#94=DIRECTION('',(1.E0,0.E0,0.E0));
#95=AXIS2_PLACEMENT_3D('',#92,#93,#94);
#96=CYLINDRICAL_SURFACE('',#95,1.45E1);
#97=ORIENTED_EDGE('',*,*,#79,.F.);
#99=ORIENTED_EDGE('',*,*,#98,.T.);
#101=ORIENTED_EDGE('',*,*,#100,.T.);
#103=ORIENTED_EDGE('',*,*,#102,.F.);
#104=EDGE_LOOP('',(#97,#99,#101,#103));
#105=FACE_OUTER_BOUND('',#104,.F.);
#106=ADVANCED_FACE('',(#105),#96,.T.);
#107=CARTESIAN_POINT('',(0.E0,0.E0,0.E0));
#108=DIRECTION('',(0.E0,1.E0,0.E0));
#109=DIRECTION('',(1.E0,0.E0,0.E0));
#110=AXIS2_PLACEMENT_3D('',#107,#108,#109);
#111=CYLINDRICAL_SURFACE('',#110,1.45E1);
#112=ORIENTED_EDGE('',*,*,#81,.F.);
#113=ORIENTED_EDGE('',*,*,#102,.T.);
#115=ORIENTED_EDGE('',*,*,#114,.T.);
#116=ORIENTED_EDGE('',*,*,#98,.F.);
#117=EDGE_LOOP('',(#112,#113,#115,#116));
#118=FACE_OUTER_BOUND('',#117,.F.);
#119=ADVANCED_FACE('',(#118),#111,.T.);
#120=CARTESIAN_POINT('',(0.E0,1.57E0,0.E0));
#121=DIRECTION('',(0.E0,1.E0,0.E0));
#122=DIRECTION('',(1.E0,0.E0,0.E0));
#123=AXIS2_PLACEMENT_3D('',#120,#121,#122);
#124=PLANE('',#123);
#125=ORIENTED_EDGE('',*,*,#100,.F.);
#126=ORIENTED_EDGE('',*,*,#114,.F.);
#127=EDGE_LOOP('',(#125,#126));
#128=FACE_OUTER_BOUND('',#127,.F.);
#130=ORIENTED_EDGE('',*,*,#129,.F.);
#132=ORIENTED_EDGE('',*,*,#131,.F.);
#133=EDGE_LOOP('',(#130,#132));
#134=FACE_BOUND('',#133,.F.);
#135=ADVANCED_FACE('',(#128,#134),#124,.T.);
#136=CARTESIAN_POINT('',(0.E0,0.E0,0.E0));
#137=DIRECTION('',(0.E0,1.E0,0.E0));
#138=DIRECTION('',(1.E0,0.E0,0.E0));
#139=AXIS2_PLACEMENT_3D('',#136,#137,#138);
#140=CYLINDRICAL_SURFACE('',#139,1.085E1);
#141=ORIENTED_EDGE('',*,*,#85,.F.);
#143=ORIENTED_EDGE('',*,*,#142,.T.);
#144=ORIENTED_EDGE('',*,*,#129,.T.);
#146=ORIENTED_EDGE('',*,*,#145,.F.);
#147=EDGE_LOOP('',(#141,#143,#144,#146));
#148=FACE_OUTER_BOUND('',#147,.F.);
#149=ADVANCED_FACE('',(#148),#140,.F.);
#150=CARTESIAN_POINT('',(0.E0,0.E0,0.E0));
#151=DIRECTION('',(0.E0,1.E0,0.E0));
#152=DIRECTION('',(1.E0,0.E0,0.E0));
#153=AXIS2_PLACEMENT_3D('',#150,#151,#152);
#154=CYLINDRICAL_SURFACE('',#153,1.085E1);
#155=ORIENTED_EDGE('',*,*,#87,.F.);
#156=ORIENTED_EDGE('',*,*,#145,.T.);
#157=ORIENTED_EDGE('',*,*,#131,.T.);
#158=ORIENTED_EDGE('',*,*,#142,.F.);
#159=EDGE_LOOP('',(#155,#156,#157,#158));
#160=FACE_OUTER_BOUND('',#159,.F.);
#161=ADVANCED_FACE('',(#160),#154,.F.);
#162=CLOSED_SHELL('',(#91,#106,#119,#135,#149,#161));
#163=MANIFOLD_SOLID_BREP('',#162);
#165=DIMENSIONAL_EXPONENTS(0.E0,0.E0,0.E0,0.E0,0.E0,0.E0,0.E0);
#167=PLANE_ANGLE_MEASURE_WITH_UNIT(PLANE_ANGLE_MEASURE(1.745329251994E-2),#166);
#168=(CONVERSION_BASED_UNIT('DEGREE',#167)NAMED_UNIT(*)PLANE_ANGLE_UNIT());
#170=UNCERTAINTY_MEASURE_WITH_UNIT(LENGTH_MEASURE(4.104059143705E-3),#164,
'closure',
'Maximum model space distance between geometric entities at asserted connectivities');
#171=(GEOMETRIC_REPRESENTATION_CONTEXT(3)GLOBAL_UNCERTAINTY_ASSIGNED_CONTEXT((
#170))GLOBAL_UNIT_ASSIGNED_CONTEXT((#164,#168,#169))REPRESENTATION_CONTEXT
('ID1','3'));
#172=CARTESIAN_POINT('',(0.E0,0.E0,0.E0));
#173=DIRECTION('',(0.E0,0.E0,1.E0));
#174=DIRECTION('',(1.E0,0.E0,0.E0));
#177=APPLICATION_CONTEXT(
'CONFIGURATION CONTROLLED 3D DESIGNS OF MECHANICAL PARTS AND ASSEMBLIES');
#178=APPLICATION_PROTOCOL_DEFINITION('international standard',
'config_control_design',1994,#177);
#179=DESIGN_CONTEXT('',#177,'design');
#180=MECHANICAL_CONTEXT('',#177,'mechanical');
#181=PRODUCT('175241','175241','NOT SPECIFIED',(#180));
#182=PRODUCT_DEFINITION_FORMATION_WITH_SPECIFIED_SOURCE('1','LAST_VERSION',#181,
.MADE.);
#191=CARTESIAN_POINT('',(0.E0,0.E0,0.E0));
#192=DIRECTION('',(0.E0,0.E0,1.E0));
#193=DIRECTION('',(1.E0,0.E0,0.E0));
#194=AXIS2_PLACEMENT_3D('',#191,#192,#193);
#195=ITEM_DEFINED_TRANSFORMATION('','',#175,#194);
#196=(REPRESENTATION_RELATIONSHIP('','',#176,#188)REPRESENTATION_RELATIONSHIP_WITH_TRANSFORMATION(#195)SHAPE_REPRESENTATION_RELATIONSHIP());
#197=CONTEXT_DEPENDENT_SHAPE_REPRESENTATION(#196,#190);
#199=DIMENSIONAL_EXPONENTS(0.E0,0.E0,0.E0,0.E0,0.E0,0.E0,0.E0);
#201=PLANE_ANGLE_MEASURE_WITH_UNIT(PLANE_ANGLE_MEASURE(1.745329251994E-2),#200);
#202=(CONVERSION_BASED_UNIT('DEGREE',#201)NAMED_UNIT(*)PLANE_ANGLE_UNIT());
#204=UNCERTAINTY_MEASURE_WITH_UNIT(LENGTH_MEASURE(4.104059143705E-3),#198,
'closure',
'Maximum model space distance between geometric entities at asserted connectivities');
#205=(GEOMETRIC_REPRESENTATION_CONTEXT(3)GLOBAL_UNCERTAINTY_ASSIGNED_CONTEXT((
#204))GLOBAL_UNIT_ASSIGNED_CONTEXT((#198,#202,#203))REPRESENTATION_CONTEXT
('ID2','3'));
#206=CARTESIAN_POINT('',(0.E0,0.E0,0.E0));
#207=DIRECTION('',(0.E0,0.E0,1.E0));
#208=DIRECTION('',(1.E0,0.E0,0.E0));
#210=MECHANICAL_CONTEXT('',#177,'mechanical');
#211=PRODUCT('192319_ASM','192319_ASM','NOT SPECIFIED',(#210));
#212=PRODUCT_DEFINITION_FORMATION_WITH_SPECIFIED_SOURCE('1','LAST_VERSION',#211,
.MADE.);
#214=PRODUCT_CATEGORY('part','');
#215=PRODUCT_RELATED_PRODUCT_CATEGORY('assembly','',(#211));
#216=PRODUCT_CATEGORY_RELATIONSHIP('','',#214,#215);
#217=PRODUCT_CATEGORY('part','');
#218=PRODUCT_RELATED_PRODUCT_CATEGORY('detail','',(#181));
#219=PRODUCT_CATEGORY_RELATIONSHIP('','',#217,#218);
#220=SECURITY_CLASSIFICATION_LEVEL('unclassified');
#221=SECURITY_CLASSIFICATION('','',#220);
#222=CC_DESIGN_SECURITY_CLASSIFICATION(#221,(#182,#212,#189));
#223=APPROVAL_STATUS('approved');
#224=APPROVAL(#223,'');
#225=CC_DESIGN_APPROVAL(#224,(#221,#182,#212,#183,#213));
#226=CALENDAR_DATE(115,18,12);
#227=COORDINATED_UNIVERSAL_TIME_OFFSET(6,0,.BEHIND.);
#228=LOCAL_TIME(13,56,5.1E1,#227);
#229=DATE_AND_TIME(#226,#228);
#230=APPROVAL_DATE_TIME(#229,#224);
#231=DATE_TIME_ROLE('creation_date');
#232=CC_DESIGN_DATE_AND_TIME_ASSIGNMENT(#229,#231,(#183,#213));
#233=DATE_TIME_ROLE('classification_date');
#234=CC_DESIGN_DATE_AND_TIME_ASSIGNMENT(#229,#233,(#221));
#235=PERSON('UNSPECIFIED','UNSPECIFIED',$,$,$,$);
#236=ORGANIZATION('UNSPECIFIED','UNSPECIFIED','UNSPECIFIED');
#237=PERSON_AND_ORGANIZATION(#235,#236);
#238=APPROVAL_ROLE('approver');
#239=APPROVAL_PERSON_ORGANIZATION(#237,#224,#238);
#240=PERSON_AND_ORGANIZATION_ROLE('creator');
#241=CC_DESIGN_PERSON_AND_ORGANIZATION_ASSIGNMENT(#237,#240,(#182,#212,#183,
#213));
#242=PERSON_AND_ORGANIZATION_ROLE('design_supplier');
#243=CC_DESIGN_PERSON_AND_ORGANIZATION_ASSIGNMENT(#237,#242,(#182,#212));
#244=PERSON_AND_ORGANIZATION_ROLE('classification_officer');
#245=CC_DESIGN_PERSON_AND_ORGANIZATION_ASSIGNMENT(#237,#244,(#221));
#246=PERSON_AND_ORGANIZATION_ROLE('design_owner');
#247=CC_DESIGN_PERSON_AND_ORGANIZATION_ASSIGNMENT(#237,#246,(#211,#181));
#6=CIRCLE('',#5,1.45E1);
#11=CIRCLE('',#10,1.45E1);
#16=CIRCLE('',#15,1.085E1);
#21=CIRCLE('',#20,1.085E1);
#34=CIRCLE('',#33,1.45E1);
#39=CIRCLE('',#38,1.45E1);
#44=CIRCLE('',#43,1.085E1);
#49=CIRCLE('',#48,1.085E1);
#79=EDGE_CURVE('',#60,#61,#6,.T.);
#81=EDGE_CURVE('',#61,#60,#11,.T.);
#85=EDGE_CURVE('',#64,#65,#16,.T.);
#87=EDGE_CURVE('',#65,#64,#21,.T.);
#98=EDGE_CURVE('',#60,#68,#25,.T.);
#100=EDGE_CURVE('',#68,#69,#34,.T.);
#102=EDGE_CURVE('',#61,#69,#29,.T.);
#114=EDGE_CURVE('',#69,#68,#39,.T.);
#129=EDGE_CURVE('',#72,#73,#44,.T.);
#131=EDGE_CURVE('',#73,#72,#49,.T.);
#142=EDGE_CURVE('',#64,#72,#53,.T.);
#145=EDGE_CURVE('',#65,#73,#57,.T.);
#164=(LENGTH_UNIT()NAMED_UNIT(*)SI_UNIT(.MILLI.,.METRE.));
#166=(NAMED_UNIT(*)PLANE_ANGLE_UNIT()SI_UNIT($,.RADIAN.));
#169=(NAMED_UNIT(*)SI_UNIT($,.STERADIAN.)SOLID_ANGLE_UNIT());
#175=AXIS2_PLACEMENT_3D('',#172,#173,#174);
#176=ADVANCED_BREP_SHAPE_REPRESENTATION('',(#175,#163),#171);
#183=PRODUCT_DEFINITION('design','',#182,#179);
#184=PRODUCT_DEFINITION_SHAPE('','SHAPE FOR 175241.',#183);
#185=SHAPE_DEFINITION_REPRESENTATION(#184,#176);
#186=SHAPE_DEFINITION_REPRESENTATION(#187,#188);
#187=PRODUCT_DEFINITION_SHAPE('','SHAPE FOR 192319_ASM.',#213);
#188=SHAPE_REPRESENTATION('',(#194,#209),#205);
#189=NEXT_ASSEMBLY_USAGE_OCCURRENCE('0','Next assembly relationship','175241',
#213,#183,$);
#190=PRODUCT_DEFINITION_SHAPE('Placement #0',
'Placement of 175241 with respect to 192319_ASM',#189);
#198=(LENGTH_UNIT()NAMED_UNIT(*)SI_UNIT(.MILLI.,.METRE.));
#200=(NAMED_UNIT(*)PLANE_ANGLE_UNIT()SI_UNIT($,.RADIAN.));
#203=(NAMED_UNIT(*)SI_UNIT($,.STERADIAN.)SOLID_ANGLE_UNIT());
#209=AXIS2_PLACEMENT_3D('',#206,#207,#208);
#213=PRODUCT_DEFINITION('design','',#212,#179);
ENDSEC;
END-ISO-10303-21;
