 PTC IGES file: 192318.igs                                              S      1
1H,,1H;,10H192318_ASM,10H192318.igs,                                    G      1
52HCreo Parametric by Parametric Technology Corporation,7H2013230,32,   G      2
38,7,38,15,10H192318_ASM,1.,2,2HMM,32768,0.5,15H20151218.135512,        G      3
0.00693115,69.3142,8Hpdmadmin,7HUnknown,10,0,15H20151218.135512;        G      4
     314       1       1       1       0       0       0       001000200D      1
     314       0       4       1       0                   COLOR       1D      2
     314       2       1       1       0       0       0       001000200D      3
     314       0       1       1       0                   COLOR       2D      4
     314       3       1       1       0       0       0       001000200D      5
     314       0       1       1       0                   COLOR       3D      6
     314       4       1       1       0       0       0       001000200D      7
     314       0       8       1       0                   COLOR       4D      8
     314       5       1       1       0       0       0       001000200D      9
     314       0       8       1       0                   COLOR       5D     10
     314       6       1       1       0       0       0       001000200D     11
     314       0       8       1       0                   COLOR       6D     12
     314       7       1       1       0       0       0       001000200D     13
     314       0       8       1       0                   COLOR       7D     14
     314       8       1       1       0       0       0       001000200D     15
     314       0       5       1       0                   COLOR       8D     16
     314       9       1       1       0       0       0       001000200D     17
     314       0       8       1       0                   COLOR       9D     18
     314      10       1       1       0       0       0       001000200D     19
     314       0       1       1       0                   COLOR      10D     20
     124      11       1       1       0       0       0       001000000D     21
     124       0       0       1       0                   XFORM       1D     22
     100      12       1       1  175240       0      21       001010000D     23
     100       0     -19       1       0                     ARC       1D     24
     124      13       1       1       0       0       0       001000000D     25
     124       0       0       1       0                   XFORM       2D     26
     100      14       1       1  175240       0      25       001010000D     27
     100       0     -19       1       0                     ARC       2D     28
     124      15       1       1       0       0       0       001000000D     29
     124       0       0       1       0                   XFORM       3D     30
     100      16       1       1  175240       0      29       001010000D     31
     100       0     -19       1       0                     ARC       3D     32
     124      17       1       1       0       0       0       001000000D     33
     124       0       0       1       0                   XFORM       4D     34
     100      18       1       1  175240       0      33       001010000D     35
     100       0     -19       1       0                     ARC       4D     36
     110      19       1       1  175240       0       0       001010000D     37
     110       0     -19       1       0                    LINE       1D     38
     110      20       1       1  175240       0       0       001010000D     39
     110       0     -19       1       0                    LINE       2D     40
     124      21       1       1       0       0       0       001000000D     41
     124       0       0       1       0                   XFORM       5D     42
     100      22       1       1  175240       0      41       001010000D     43
     100       0     -19       1       0                     ARC       5D     44
     124      23       1       1       0       0       0       001000000D     45
     124       0       0       1       0                   XFORM       6D     46
     100      24       1       1  175240       0      45       001010000D     47
     100       0     -19       1       0                     ARC       6D     48
     124      25       1       1       0       0       0       001000000D     49
     124       0       0       1       0                   XFORM       7D     50
     100      26       1       1  175240       0      49       001010000D     51
     100       0     -19       1       0                     ARC       7D     52
     124      27       1       1       0       0       0       001000000D     53
     124       0       0       1       0                   XFORM       8D     54
     100      28       1       1  175240       0      53       001010000D     55
     100       0     -19       1       0                     ARC       8D     56
     110      29       1       1  175240       0       0       001010000D     57
     110       0     -19       1       0                    LINE       3D     58
     110      30       1       1  175240       0       0       001010000D     59
     110       0     -19       1       0                    LINE       4D     60
     502      31       1       1  175240       0       0       001010000D     61
     502       0     -19       3       1                  VERTEX       1D     62
     504      34       1       1  175240       0       0       000010001D     63
     504       0     -19       3       1                    EDGE       1D     64
     128      37       1       1  175240       0       0       001010000D     65
     128       0     -19       4       0                  SPLSRF       1D     66
     508      41       1       1  175240       0       0       001010000D     67
     508       0       0       1       1                EDGELOOP       1D     68
     508      42       1       1  175240       0       0       001010000D     69
     508       0       0       1       1                EDGELOOP       2D     70
     510      43       1       1  175240       0       0       000010000D     71
     510       0     -19       1       1                    FACE       1D     72
     110      44       1       1  175240       0       0       001010000D     73
     110       0     -19       1       0                    LINE       5D     74
     110      45       1       1  175240       0       0       001010000D     75
     110       0     -19       1       0                    LINE       6D     76
     120      46       1       1  175240       0       0       001010000D     77
     120       0     -19       1       0                    SREV       1D     78
     508      47       1       1  175240       0       0       001010000D     79
     508       0       0       1       1                EDGELOOP       3D     80
     510      48       1       1  175240       0       0       000010000D     81
     510       0     -19       1       1                    FACE       2D     82
     110      49       1       1  175240       0       0       001010000D     83
     110       0     -19       1       0                    LINE       7D     84
     110      50       1       1  175240       0       0       001010000D     85
     110       0     -19       1       0                    LINE       8D     86
     120      51       1       1  175240       0       0       001010000D     87
     120       0     -19       1       0                    SREV       2D     88
     508      52       1       1  175240       0       0       001010000D     89
     508       0       0       1       1                EDGELOOP       4D     90
     510      53       1       1  175240       0       0       000010000D     91
     510       0     -19       1       1                    FACE       3D     92
     128      54       1       1  175240       0       0       001010000D     93
     128       0     -19       4       0                  SPLSRF       2D     94
     508      58       1       1  175240       0       0       001010000D     95
     508       0       0       1       1                EDGELOOP       5D     96
     508      59       1       1  175240       0       0       001010000D     97
     508       0       0       1       1                EDGELOOP       6D     98
     510      60       1       1  175240       0       0       000010000D     99
     510       0     -19       1       1                    FACE       4D    100
     110      61       1       1  175240       0       0       001010000D    101
     110       0     -19       1       0                    LINE       9D    102
     110      62       1       1  175240       0       0       001010000D    103
     110       0     -19       1       0                    LINE      10D    104
     120      63       1       1  175240       0       0       001010000D    105
     120       0     -19       1       0                    SREV       3D    106
     508      64       1       1  175240       0       0       001010000D    107
     508       0       0       1       1                EDGELOOP       7D    108
     510      65       1       1  175240       0       0       000010000D    109
     510       0     -19       1       1                    FACE       5D    110
     110      66       1       1  175240       0       0       001010000D    111
     110       0     -19       1       0                    LINE      11D    112
     110      67       1       1  175240       0       0       001010000D    113
     110       0     -19       1       0                    LINE      12D    114
     120      68       1       1  175240       0       0       001010000D    115
     120       0     -19       1       0                    SREV       4D    116
     508      69       1       1  175240       0       0       001010000D    117
     508       0       0       1       1                EDGELOOP       8D    118
     510      70       1       1  175240       0       0       000010000D    119
     510       0     -19       1       1                    FACE       6D    120
     514      71       1       1  175240       0       0       000010000D    121
     514       0     -19       1       1                   SHELL       1D    122
     186      72       1       1       0       0       0       000000000D    123
     186       0     -19       1       0                    MSBR       1D    124
     406      73       1       1       0       0       0       001000000D    125
     406       0       0       1      15                    PROP       1D    126
     402      74       1       1       0       0       0       000000300D    127
     402       0       0       3       7                   LAYER       1D    128
314,1.1D0,1.2D0,1D2;                                                   1P      1
314,3.92D1,1.2D0,1.2D0;                                                3P      2
314,4.1D1,0D0,2.2D1;                                                   5P      3
314,6.952D1,7.426D1,7.9D1;                                             7P      4
314,7.84314D1,7.84314D1,7.84314D1;                                     9P      5
314,8.784D1,9.49D1,1D2;                                               11P      6
314,9.6D1,9.6D1,9.6D1;                                                13P      7
314,9.8D1,6.27D1,0D0;                                                 15P      8
314,1D2,1D2,9.49D1;                                                   17P      9
314,4D1,4D1,4D1;                                                      19P     10
124,1D0,0D0,0D0,0D0,0D0,0D0,1D0,0D0,0D0,-1D0,0D0,0D0;                 21P     11
100,0D0,0D0,0D0,2.45D1,0D0,-2.45D1,0D0;                               23P     12
124,-1D0,0D0,0D0,0D0,0D0,0D0,1D0,0D0,0D0,1D0,0D0,0D0;                 25P     13
100,0D0,0D0,0D0,2.45D1,0D0,-2.45D1,0D0;                               27P     14
124,1D0,0D0,0D0,0D0,0D0,0D0,-1D0,0D0,0D0,1D0,0D0,0D0;                 29P     15
100,0D0,0D0,0D0,1.48D1,0D0,-1.48D1,0D0;                               31P     16
124,-1D0,0D0,0D0,0D0,0D0,0D0,-1D0,0D0,0D0,-1D0,0D0,0D0;               33P     17
100,0D0,0D0,0D0,1.48D1,0D0,-1.48D1,0D0;                               35P     18
110,2.45D1,0D0,0D0,2.45D1,1.57D0,0D0;                                 37P     19
110,-2.45D1,0D0,0D0,-2.45D1,1.57D0,0D0;                               39P     20
124,1D0,0D0,0D0,0D0,0D0,0D0,1D0,1.57D0,0D0,-1D0,0D0,0D0;              41P     21
100,0D0,0D0,0D0,2.45D1,0D0,-2.45D1,0D0;                               43P     22
124,-1D0,0D0,0D0,0D0,0D0,0D0,1D0,1.57D0,0D0,1D0,0D0,0D0;              45P     23
100,0D0,0D0,0D0,2.45D1,0D0,-2.45D1,0D0;                               47P     24
124,1D0,0D0,0D0,0D0,0D0,0D0,-1D0,1.57D0,0D0,1D0,0D0,0D0;              49P     25
100,0D0,0D0,0D0,1.48D1,0D0,-1.48D1,0D0;                               51P     26
124,-1D0,0D0,0D0,0D0,0D0,0D0,-1D0,1.57D0,0D0,-1D0,0D0,0D0;            53P     27
100,0D0,0D0,0D0,1.48D1,0D0,-1.48D1,0D0;                               55P     28
110,1.48D1,0D0,0D0,1.48D1,1.57D0,0D0;                                 57P     29
110,-1.48D1,0D0,0D0,-1.48D1,1.57D0,0D0;                               59P     30
502,8,2.45D1,0D0,0D0,-2.45D1,0D0,0D0,1.48D1,0D0,0D0,-1.48D1,0D0,      61P     31
0D0,2.45D1,1.57D0,0D0,-2.45D1,1.57D0,0D0,1.48D1,1.57D0,0D0,           61P     32
-1.48D1,1.57D0,0D0;                                                   61P     33
504,12,23,61,1,61,2,27,61,2,61,1,31,61,3,61,4,35,61,4,61,3,43,        63P     34
61,5,61,6,47,61,6,61,5,51,61,7,61,8,55,61,8,61,7,37,61,1,61,5,        63P     35
39,61,2,61,6,57,61,3,61,7,59,61,4,61,8;                               63P     36
128,1,1,1,1,0,0,1,0,0,-2.548D1,-2.548D1,2.548D1,2.548D1,              65P     37
-2.548D1,-2.548D1,2.548D1,2.548D1,1D0,1D0,1D0,1D0,-2.548D1,0D0,       65P     38
2.548D1,2.548D1,0D0,2.548D1,-2.548D1,0D0,-2.548D1,2.548D1,0D0,        65P     39
-2.548D1,-2.548D1,2.548D1,-2.548D1,2.548D1;                           65P     40
508,2,0,63,1,1,0,0,63,2,1,0;                                          67P     41
508,2,0,63,3,1,0,0,63,4,1,0;                                          69P     42
510,65,2,0,67,69;                                                     71P     43
110,0D0,0D0,0D0,0D0,1D0,0D0;                                          73P     44
110,2.45D1,-8.317709694381D-2,0D0,2.45D1,1.653177096944D0,0D0;        75P     45
120,73,75,-6.283185307180D-2,3.204424506662D0;                        77P     46
508,4,0,63,1,0,0,0,63,9,1,0,0,63,5,1,0,0,63,10,0,0;                   79P     47
510,77,1,0,79;                                                        81P     48
110,0D0,0D0,0D0,0D0,1D0,0D0;                                          83P     49
110,2.45D1,-8.317709694381D-2,0D0,2.45D1,1.653177096944D0,0D0;        85P     50
120,83,85,3.078760800518D0,6.346017160251D0;                          87P     51
508,4,0,63,2,0,0,0,63,10,1,0,0,63,6,1,0,0,63,9,0,0;                   89P     52
510,87,1,0,89;                                                        91P     53
128,1,1,1,1,0,0,1,0,0,-2.548D1,-2.548D1,2.548D1,2.548D1,              93P     54
-2.548D1,-2.548D1,2.548D1,2.548D1,1D0,1D0,1D0,1D0,-2.548D1,           93P     55
1.57D0,2.548D1,2.548D1,1.57D0,2.548D1,-2.548D1,1.57D0,-2.548D1,       93P     56
2.548D1,1.57D0,-2.548D1,-2.548D1,2.548D1,-2.548D1,2.548D1;            93P     57
508,2,0,63,5,0,0,0,63,6,0,0;                                          95P     58
508,2,0,63,7,0,0,0,63,8,0,0;                                          97P     59
510,93,2,0,95,97;                                                     99P     60
110,0D0,0D0,0D0,0D0,1D0,0D0;                                         101P     61
110,1.48D1,-8.317709694381D-2,0D0,1.48D1,1.653177096944D0,0D0;       103P     62
120,101,103,3.078760800518D0,6.346017160251D0;                       105P     63
508,4,0,63,3,0,0,0,63,11,1,0,0,63,7,1,0,0,63,12,0,0;                 107P     64
510,105,1,0,107;                                                     109P     65
110,0D0,0D0,0D0,0D0,1D0,0D0;                                         111P     66
110,1.48D1,-8.317709694381D-2,0D0,1.48D1,1.653177096944D0,0D0;       113P     67
120,111,113,-6.283185307180D-2,3.204424506662D0;                     115P     68
508,4,0,63,4,0,0,0,63,12,1,0,0,63,8,1,0,0,63,11,0,0;                 117P     69
510,115,1,0,117;                                                     119P     70
514,6,71,0,81,1,91,1,99,1,109,0,119,0;                               121P     71
186,121,1,0;                                                         123P     72
406,1,6H175240;                                                      125P     73
402,44,23,27,31,35,37,39,43,47,51,55,57,59,61,63,65,67,69,71,73,     127P     74
75,77,79,81,83,85,87,89,91,93,95,97,99,101,103,105,107,109,111,      127P     75
113,115,117,119,121,123,0,1,125;                                     127P     76
S      1G      4D    128P     76                                        T      1
