ISO-10303-21;
HEADER;
FILE_DESCRIPTION((''),'2;1');
FILE_NAME('192317_ASM','2015-12-18T',('pdmadmin'),(''),
'PRO/ENGINEER BY PARAMETRIC TECHNOLOGY CORPORATION, 2013230',
'PRO/ENGINEER BY PARAMETRIC TECHNOLOGY CORPORATION, 2013230','');
FILE_SCHEMA(('CONFIG_CONTROL_DESIGN'));
ENDSEC;
DATA;
#1=CARTESIAN_POINT('',(0.E0,0.E0,0.E0));
#2=DIRECTION('',(0.E0,1.E0,0.E0));
#3=DIRECTION('',(0.E0,0.E0,-1.E0));
#4=AXIS2_PLACEMENT_3D('',#1,#2,#3);
#6=CARTESIAN_POINT('',(0.E0,0.E0,0.E0));
#7=DIRECTION('',(0.E0,-1.E0,0.E0));
#8=DIRECTION('',(0.E0,0.E0,-1.E0));
#9=AXIS2_PLACEMENT_3D('',#6,#7,#8);
#11=CARTESIAN_POINT('',(0.E0,0.E0,0.E0));
#12=DIRECTION('',(0.E0,-1.E0,0.E0));
#13=DIRECTION('',(0.E0,0.E0,-1.E0));
#14=AXIS2_PLACEMENT_3D('',#11,#12,#13);
#16=DIRECTION('',(0.E0,1.E0,0.E0));
#17=VECTOR('',#16,3.8E-1);
#18=CARTESIAN_POINT('',(0.E0,0.E0,-1.41E0));
#19=LINE('',#18,#17);
#20=DIRECTION('',(0.E0,1.E0,0.E0));
#21=VECTOR('',#20,3.8E-1);
#22=CARTESIAN_POINT('',(0.E0,0.E0,1.41E0));
#23=LINE('',#22,#21);
#24=CARTESIAN_POINT('',(0.E0,0.E0,0.E0));
#25=DIRECTION('',(0.E0,1.E0,0.E0));
#26=DIRECTION('',(0.E0,0.E0,-1.E0));
#27=AXIS2_PLACEMENT_3D('',#24,#25,#26);
#29=CARTESIAN_POINT('',(0.E0,3.8E-1,0.E0));
#30=DIRECTION('',(0.E0,1.E0,0.E0));
#31=DIRECTION('',(0.E0,0.E0,-1.E0));
#32=AXIS2_PLACEMENT_3D('',#29,#30,#31);
#34=CARTESIAN_POINT('',(0.E0,3.8E-1,0.E0));
#35=DIRECTION('',(0.E0,-1.E0,0.E0));
#36=DIRECTION('',(0.E0,0.E0,-1.E0));
#37=AXIS2_PLACEMENT_3D('',#34,#35,#36);
#39=CARTESIAN_POINT('',(0.E0,3.8E-1,0.E0));
#40=DIRECTION('',(0.E0,-1.E0,0.E0));
#41=DIRECTION('',(0.E0,0.E0,-1.E0));
#42=AXIS2_PLACEMENT_3D('',#39,#40,#41);
#44=DIRECTION('',(0.E0,-1.E0,0.E0));
#45=VECTOR('',#44,3.8E-1);
#46=CARTESIAN_POINT('',(0.E0,3.8E-1,-1.51E0));
#47=LINE('',#46,#45);
#48=DIRECTION('',(0.E0,-1.E0,0.E0));
#49=VECTOR('',#48,3.8E-1);
#50=CARTESIAN_POINT('',(0.E0,3.8E-1,1.51E0));
#51=LINE('',#50,#49);
#52=CARTESIAN_POINT('',(0.E0,3.8E-1,0.E0));
#53=DIRECTION('',(0.E0,1.E0,0.E0));
#54=DIRECTION('',(0.E0,0.E0,-1.E0));
#55=AXIS2_PLACEMENT_3D('',#52,#53,#54);
#57=CARTESIAN_POINT('',(0.E0,0.E0,0.E0));
#58=DIRECTION('',(0.E0,1.E0,0.E0));
#59=DIRECTION('',(0.E0,0.E0,-1.E0));
#60=AXIS2_PLACEMENT_3D('',#57,#58,#59);
#62=CARTESIAN_POINT('',(0.E0,0.E0,0.E0));
#63=DIRECTION('',(0.E0,-1.E0,0.E0));
#64=DIRECTION('',(0.E0,0.E0,-1.E0));
#65=AXIS2_PLACEMENT_3D('',#62,#63,#64);
#67=CARTESIAN_POINT('',(0.E0,3.4E-1,0.E0));
#68=DIRECTION('',(0.E0,1.E0,0.E0));
#69=DIRECTION('',(0.E0,0.E0,1.E0));
#70=AXIS2_PLACEMENT_3D('',#67,#68,#69);
#72=CARTESIAN_POINT('',(0.E0,0.E0,0.E0));
#73=DIRECTION('',(0.E0,-1.E0,0.E0));
#74=DIRECTION('',(0.E0,0.E0,-1.E0));
#75=AXIS2_PLACEMENT_3D('',#72,#73,#74);
#77=CARTESIAN_POINT('',(0.E0,3.4E-1,1.495E0));
#78=DIRECTION('',(1.E0,0.E0,0.E0));
#79=DIRECTION('',(0.E0,1.E0,0.E0));
#80=AXIS2_PLACEMENT_3D('',#77,#78,#79);
#82=CARTESIAN_POINT('',(0.E0,4.4E-1,0.E0));
#83=DIRECTION('',(0.E0,1.E0,0.E0));
#84=DIRECTION('',(0.E0,0.E0,1.E0));
#85=AXIS2_PLACEMENT_3D('',#82,#83,#84);
#87=CARTESIAN_POINT('',(0.E0,4.4E-1,0.E0));
#88=DIRECTION('',(0.E0,1.E0,0.E0));
#89=DIRECTION('',(0.E0,0.E0,-1.E0));
#90=AXIS2_PLACEMENT_3D('',#87,#88,#89);
#92=CARTESIAN_POINT('',(0.E0,4.4E-1,0.E0));
#93=DIRECTION('',(0.E0,-1.E0,0.E0));
#94=DIRECTION('',(0.E0,0.E0,-1.E0));
#95=AXIS2_PLACEMENT_3D('',#92,#93,#94);
#97=DIRECTION('',(0.E0,-1.E0,0.E0));
#98=VECTOR('',#97,6.E-2);
#99=CARTESIAN_POINT('',(0.E0,4.4E-1,-1.4E-1));
#100=LINE('',#99,#98);
#101=DIRECTION('',(0.E0,-1.E0,0.E0));
#102=VECTOR('',#101,6.E-2);
#103=CARTESIAN_POINT('',(0.E0,4.4E-1,1.4E-1));
#104=LINE('',#103,#102);
#105=CARTESIAN_POINT('',(0.E0,4.4E-1,0.E0));
#106=DIRECTION('',(0.E0,1.E0,0.E0));
#107=DIRECTION('',(0.E0,0.E0,-1.E0));
#108=AXIS2_PLACEMENT_3D('',#105,#106,#107);
#110=CARTESIAN_POINT('',(0.E0,3.8E-1,0.E0));
#111=DIRECTION('',(0.E0,1.E0,0.E0));
#112=DIRECTION('',(0.E0,0.E0,-1.E0));
#113=AXIS2_PLACEMENT_3D('',#110,#111,#112);
#115=CARTESIAN_POINT('',(0.E0,3.8E-1,0.E0));
#116=DIRECTION('',(0.E0,-1.E0,0.E0));
#117=DIRECTION('',(0.E0,0.E0,-1.E0));
#118=AXIS2_PLACEMENT_3D('',#115,#116,#117);
#120=CARTESIAN_POINT('',(0.E0,3.8E-1,0.E0));
#121=DIRECTION('',(0.E0,-1.E0,0.E0));
#122=DIRECTION('',(0.E0,0.E0,-1.E0));
#123=AXIS2_PLACEMENT_3D('',#120,#121,#122);
#125=DIRECTION('',(0.E0,-1.E0,0.E0));
#126=VECTOR('',#125,3.8E-1);
#127=CARTESIAN_POINT('',(0.E0,3.8E-1,-6.E-1));
#128=LINE('',#127,#126);
#129=DIRECTION('',(0.E0,-1.E0,0.E0));
#130=VECTOR('',#129,3.8E-1);
#131=CARTESIAN_POINT('',(0.E0,3.8E-1,6.E-1));
#132=LINE('',#131,#130);
#133=CARTESIAN_POINT('',(0.E0,3.8E-1,0.E0));
#134=DIRECTION('',(0.E0,1.E0,0.E0));
#135=DIRECTION('',(0.E0,0.E0,-1.E0));
#136=AXIS2_PLACEMENT_3D('',#133,#134,#135);
#138=CARTESIAN_POINT('',(0.E0,3.4E-1,-1.495E0));
#139=DIRECTION('',(-1.E0,0.E0,0.E0));
#140=DIRECTION('',(0.E0,1.E0,0.E0));
#141=AXIS2_PLACEMENT_3D('',#138,#139,#140);
#143=CARTESIAN_POINT('',(0.E0,3.4E-1,0.E0));
#144=DIRECTION('',(0.E0,1.E0,0.E0));
#145=DIRECTION('',(0.E0,0.E0,-1.E0));
#146=AXIS2_PLACEMENT_3D('',#143,#144,#145);
#148=DIRECTION('',(-1.044523604639E-12,1.E0,0.E0));
#149=VECTOR('',#148,3.4E-1);
#150=CARTESIAN_POINT('',(0.E0,0.E0,1.595E0));
#151=LINE('',#150,#149);
#152=CARTESIAN_POINT('',(0.E0,0.E0,0.E0));
#153=DIRECTION('',(0.E0,1.E0,0.E0));
#154=DIRECTION('',(0.E0,0.E0,-1.E0));
#155=AXIS2_PLACEMENT_3D('',#152,#153,#154);
#157=DIRECTION('',(1.045568774577E-12,1.E0,0.E0));
#158=VECTOR('',#157,3.4E-1);
#159=CARTESIAN_POINT('',(0.E0,0.E0,-1.595E0));
#160=LINE('',#159,#158);
#161=CARTESIAN_POINT('',(0.E0,4.4E-1,1.495E0));
#162=CARTESIAN_POINT('',(0.E0,4.4E-1,-1.495E0));
#163=VERTEX_POINT('',#161);
#164=VERTEX_POINT('',#162);
#165=CARTESIAN_POINT('',(0.E0,3.4E-1,1.595E0));
#166=CARTESIAN_POINT('',(0.E0,3.4E-1,-1.595E0));
#167=VERTEX_POINT('',#165);
#168=VERTEX_POINT('',#166);
#169=CARTESIAN_POINT('',(0.E0,0.E0,-1.595E0));
#170=VERTEX_POINT('',#169);
#171=CARTESIAN_POINT('',(0.E0,0.E0,1.595E0));
#172=VERTEX_POINT('',#171);
#173=CARTESIAN_POINT('',(0.E0,4.4E-1,-1.4E-1));
#174=CARTESIAN_POINT('',(0.E0,3.8E-1,-1.4E-1));
#175=VERTEX_POINT('',#173);
#176=VERTEX_POINT('',#174);
#177=CARTESIAN_POINT('',(0.E0,3.8E-1,-6.E-1));
#178=CARTESIAN_POINT('',(0.E0,0.E0,-6.E-1));
#179=VERTEX_POINT('',#177);
#180=VERTEX_POINT('',#178);
#181=CARTESIAN_POINT('',(0.E0,4.4E-1,1.4E-1));
#182=CARTESIAN_POINT('',(0.E0,3.8E-1,1.4E-1));
#183=VERTEX_POINT('',#181);
#184=VERTEX_POINT('',#182);
#185=CARTESIAN_POINT('',(0.E0,3.8E-1,6.E-1));
#186=CARTESIAN_POINT('',(0.E0,0.E0,6.E-1));
#187=VERTEX_POINT('',#185);
#188=VERTEX_POINT('',#186);
#189=CARTESIAN_POINT('',(0.E0,0.E0,-1.41E0));
#190=CARTESIAN_POINT('',(0.E0,3.8E-1,-1.41E0));
#191=VERTEX_POINT('',#189);
#192=VERTEX_POINT('',#190);
#193=CARTESIAN_POINT('',(0.E0,3.8E-1,-1.51E0));
#194=CARTESIAN_POINT('',(0.E0,0.E0,-1.51E0));
#195=VERTEX_POINT('',#193);
#196=VERTEX_POINT('',#194);
#197=CARTESIAN_POINT('',(0.E0,0.E0,1.41E0));
#198=CARTESIAN_POINT('',(0.E0,3.8E-1,1.41E0));
#199=VERTEX_POINT('',#197);
#200=VERTEX_POINT('',#198);
#201=CARTESIAN_POINT('',(0.E0,3.8E-1,1.51E0));
#202=CARTESIAN_POINT('',(0.E0,0.E0,1.51E0));
#203=VERTEX_POINT('',#201);
#204=VERTEX_POINT('',#202);
#205=CARTESIAN_POINT('',(0.E0,0.E0,0.E0));
#206=DIRECTION('',(0.E0,-1.E0,0.E0));
#207=DIRECTION('',(0.E0,0.E0,1.E0));
#208=AXIS2_PLACEMENT_3D('',#205,#206,#207);
#209=PLANE('',#208);
#211=ORIENTED_EDGE('',*,*,#210,.F.);
#213=ORIENTED_EDGE('',*,*,#212,.T.);
#214=EDGE_LOOP('',(#211,#213));
#215=FACE_OUTER_BOUND('',#214,.F.);
#217=ORIENTED_EDGE('',*,*,#216,.F.);
#219=ORIENTED_EDGE('',*,*,#218,.T.);
#220=EDGE_LOOP('',(#217,#219));
#221=FACE_BOUND('',#220,.F.);
#222=ADVANCED_FACE('',(#215,#221),#209,.T.);
#223=CARTESIAN_POINT('',(0.E0,4.62E-1,0.E0));
#224=DIRECTION('',(0.E0,-1.E0,0.E0));
#225=DIRECTION('',(0.E0,0.E0,1.E0));
#226=AXIS2_PLACEMENT_3D('',#223,#224,#225);
#227=CYLINDRICAL_SURFACE('',#226,1.41E0);
#229=ORIENTED_EDGE('',*,*,#228,.F.);
#230=ORIENTED_EDGE('',*,*,#210,.T.);
#232=ORIENTED_EDGE('',*,*,#231,.T.);
#234=ORIENTED_EDGE('',*,*,#233,.F.);
#235=EDGE_LOOP('',(#229,#230,#232,#234));
#236=FACE_OUTER_BOUND('',#235,.F.);
#237=ADVANCED_FACE('',(#236),#227,.T.);
#238=CARTESIAN_POINT('',(0.E0,4.62E-1,0.E0));
#239=DIRECTION('',(0.E0,-1.E0,0.E0));
#240=DIRECTION('',(0.E0,0.E0,1.E0));
#241=AXIS2_PLACEMENT_3D('',#238,#239,#240);
#242=CYLINDRICAL_SURFACE('',#241,1.41E0);
#243=ORIENTED_EDGE('',*,*,#228,.T.);
#245=ORIENTED_EDGE('',*,*,#244,.T.);
#246=ORIENTED_EDGE('',*,*,#231,.F.);
#247=ORIENTED_EDGE('',*,*,#212,.F.);
#248=EDGE_LOOP('',(#243,#245,#246,#247));
#249=FACE_OUTER_BOUND('',#248,.F.);
#250=ADVANCED_FACE('',(#249),#242,.T.);
#251=CARTESIAN_POINT('',(0.E0,3.8E-1,0.E0));
#252=DIRECTION('',(0.E0,-1.E0,0.E0));
#253=DIRECTION('',(0.E0,0.E0,1.E0));
#254=AXIS2_PLACEMENT_3D('',#251,#252,#253);
#255=PLANE('',#254);
#257=ORIENTED_EDGE('',*,*,#256,.F.);
#259=ORIENTED_EDGE('',*,*,#258,.T.);
#260=EDGE_LOOP('',(#257,#259));
#261=FACE_OUTER_BOUND('',#260,.F.);
#262=ORIENTED_EDGE('',*,*,#244,.F.);
#263=ORIENTED_EDGE('',*,*,#233,.T.);
#264=EDGE_LOOP('',(#262,#263));
#265=FACE_BOUND('',#264,.F.);
#266=ADVANCED_FACE('',(#261,#265),#255,.T.);
#267=CARTESIAN_POINT('',(0.E0,4.62E-1,0.E0));
#268=DIRECTION('',(0.E0,-1.E0,0.E0));
#269=DIRECTION('',(0.E0,0.E0,1.E0));
#270=AXIS2_PLACEMENT_3D('',#267,#268,#269);
#271=CYLINDRICAL_SURFACE('',#270,1.51E0);
#273=ORIENTED_EDGE('',*,*,#272,.F.);
#274=ORIENTED_EDGE('',*,*,#256,.T.);
#276=ORIENTED_EDGE('',*,*,#275,.T.);
#278=ORIENTED_EDGE('',*,*,#277,.F.);
#279=EDGE_LOOP('',(#273,#274,#276,#278));
#280=FACE_OUTER_BOUND('',#279,.F.);
#281=ADVANCED_FACE('',(#280),#271,.F.);
#282=CARTESIAN_POINT('',(0.E0,4.62E-1,0.E0));
#283=DIRECTION('',(0.E0,-1.E0,0.E0));
#284=DIRECTION('',(0.E0,0.E0,1.E0));
#285=AXIS2_PLACEMENT_3D('',#282,#283,#284);
#286=CYLINDRICAL_SURFACE('',#285,1.51E0);
#287=ORIENTED_EDGE('',*,*,#272,.T.);
#289=ORIENTED_EDGE('',*,*,#288,.T.);
#290=ORIENTED_EDGE('',*,*,#275,.F.);
#291=ORIENTED_EDGE('',*,*,#258,.F.);
#292=EDGE_LOOP('',(#287,#289,#290,#291));
#293=FACE_OUTER_BOUND('',#292,.F.);
#294=ADVANCED_FACE('',(#293),#286,.F.);
#295=CARTESIAN_POINT('',(0.E0,0.E0,0.E0));
#296=DIRECTION('',(0.E0,-1.E0,0.E0));
#297=DIRECTION('',(0.E0,0.E0,1.E0));
#298=AXIS2_PLACEMENT_3D('',#295,#296,#297);
#299=PLANE('',#298);
#301=ORIENTED_EDGE('',*,*,#300,.F.);
#303=ORIENTED_EDGE('',*,*,#302,.T.);
#304=EDGE_LOOP('',(#301,#303));
#305=FACE_OUTER_BOUND('',#304,.F.);
#306=ORIENTED_EDGE('',*,*,#288,.F.);
#307=ORIENTED_EDGE('',*,*,#277,.T.);
#308=EDGE_LOOP('',(#306,#307));
#309=FACE_BOUND('',#308,.F.);
#310=ADVANCED_FACE('',(#305,#309),#299,.T.);
#311=CARTESIAN_POINT('',(0.E0,4.62E-1,0.E0));
#312=DIRECTION('',(0.E0,-1.E0,0.E0));
#313=DIRECTION('',(0.E0,0.E0,1.E0));
#314=AXIS2_PLACEMENT_3D('',#311,#312,#313);
#315=CYLINDRICAL_SURFACE('',#314,1.595E0);
#317=ORIENTED_EDGE('',*,*,#316,.T.);
#319=ORIENTED_EDGE('',*,*,#318,.F.);
#320=ORIENTED_EDGE('',*,*,#300,.T.);
#322=ORIENTED_EDGE('',*,*,#321,.T.);
#323=EDGE_LOOP('',(#317,#319,#320,#322));
#324=FACE_OUTER_BOUND('',#323,.F.);
#325=ADVANCED_FACE('',(#324),#315,.T.);
#326=CARTESIAN_POINT('',(0.E0,3.4E-1,0.E0));
#327=DIRECTION('',(0.E0,-1.E0,0.E0));
#328=DIRECTION('',(-6.208253564988E-3,0.E0,9.999807286081E-1));
#329=AXIS2_PLACEMENT_3D('',#326,#327,#328);
#330=TOROIDAL_SURFACE('',#329,1.495E0,1.E-1);
#332=ORIENTED_EDGE('',*,*,#331,.T.);
#334=ORIENTED_EDGE('',*,*,#333,.T.);
#335=ORIENTED_EDGE('',*,*,#316,.F.);
#337=ORIENTED_EDGE('',*,*,#336,.F.);
#338=EDGE_LOOP('',(#332,#334,#335,#337));
#339=FACE_OUTER_BOUND('',#338,.F.);
#340=ADVANCED_FACE('',(#339),#330,.T.);
#341=CARTESIAN_POINT('',(0.E0,4.4E-1,0.E0));
#342=DIRECTION('',(0.E0,-1.E0,0.E0));
#343=DIRECTION('',(0.E0,0.E0,1.E0));
#344=AXIS2_PLACEMENT_3D('',#341,#342,#343);
#345=PLANE('',#344);
#346=ORIENTED_EDGE('',*,*,#331,.F.);
#348=ORIENTED_EDGE('',*,*,#347,.F.);
#349=EDGE_LOOP('',(#346,#348));
#350=FACE_OUTER_BOUND('',#349,.F.);
#352=ORIENTED_EDGE('',*,*,#351,.F.);
#354=ORIENTED_EDGE('',*,*,#353,.T.);
#355=EDGE_LOOP('',(#352,#354));
#356=FACE_BOUND('',#355,.F.);
#357=ADVANCED_FACE('',(#350,#356),#345,.F.);
#358=CARTESIAN_POINT('',(0.E0,4.62E-1,0.E0));
#359=DIRECTION('',(0.E0,-1.E0,0.E0));
#360=DIRECTION('',(0.E0,0.E0,1.E0));
#361=AXIS2_PLACEMENT_3D('',#358,#359,#360);
#362=CYLINDRICAL_SURFACE('',#361,1.4E-1);
#364=ORIENTED_EDGE('',*,*,#363,.F.);
#365=ORIENTED_EDGE('',*,*,#351,.T.);
#367=ORIENTED_EDGE('',*,*,#366,.T.);
#369=ORIENTED_EDGE('',*,*,#368,.F.);
#370=EDGE_LOOP('',(#364,#365,#367,#369));
#371=FACE_OUTER_BOUND('',#370,.F.);
#372=ADVANCED_FACE('',(#371),#362,.F.);
#373=CARTESIAN_POINT('',(0.E0,4.62E-1,0.E0));
#374=DIRECTION('',(0.E0,-1.E0,0.E0));
#375=DIRECTION('',(0.E0,0.E0,1.E0));
#376=AXIS2_PLACEMENT_3D('',#373,#374,#375);
#377=CYLINDRICAL_SURFACE('',#376,1.4E-1);
#378=ORIENTED_EDGE('',*,*,#363,.T.);
#380=ORIENTED_EDGE('',*,*,#379,.T.);
#381=ORIENTED_EDGE('',*,*,#366,.F.);
#382=ORIENTED_EDGE('',*,*,#353,.F.);
#383=EDGE_LOOP('',(#378,#380,#381,#382));
#384=FACE_OUTER_BOUND('',#383,.F.);
#385=ADVANCED_FACE('',(#384),#377,.F.);
#386=CARTESIAN_POINT('',(0.E0,3.8E-1,0.E0));
#387=DIRECTION('',(0.E0,-1.E0,0.E0));
#388=DIRECTION('',(0.E0,0.E0,1.E0));
#389=AXIS2_PLACEMENT_3D('',#386,#387,#388);
#390=PLANE('',#389);
#392=ORIENTED_EDGE('',*,*,#391,.F.);
#394=ORIENTED_EDGE('',*,*,#393,.T.);
#395=EDGE_LOOP('',(#392,#394));
#396=FACE_OUTER_BOUND('',#395,.F.);
#397=ORIENTED_EDGE('',*,*,#379,.F.);
#398=ORIENTED_EDGE('',*,*,#368,.T.);
#399=EDGE_LOOP('',(#397,#398));
#400=FACE_BOUND('',#399,.F.);
#401=ADVANCED_FACE('',(#396,#400),#390,.T.);
#402=CARTESIAN_POINT('',(0.E0,4.62E-1,0.E0));
#403=DIRECTION('',(0.E0,-1.E0,0.E0));
#404=DIRECTION('',(0.E0,0.E0,1.E0));
#405=AXIS2_PLACEMENT_3D('',#402,#403,#404);
#406=CYLINDRICAL_SURFACE('',#405,6.E-1);
#408=ORIENTED_EDGE('',*,*,#407,.F.);
#409=ORIENTED_EDGE('',*,*,#391,.T.);
#411=ORIENTED_EDGE('',*,*,#410,.T.);
#412=ORIENTED_EDGE('',*,*,#218,.F.);
#413=EDGE_LOOP('',(#408,#409,#411,#412));
#414=FACE_OUTER_BOUND('',#413,.F.);
#415=ADVANCED_FACE('',(#414),#406,.F.);
#416=CARTESIAN_POINT('',(0.E0,4.62E-1,0.E0));
#417=DIRECTION('',(0.E0,-1.E0,0.E0));
#418=DIRECTION('',(0.E0,0.E0,1.E0));
#419=AXIS2_PLACEMENT_3D('',#416,#417,#418);
#420=CYLINDRICAL_SURFACE('',#419,6.E-1);
#421=ORIENTED_EDGE('',*,*,#407,.T.);
#422=ORIENTED_EDGE('',*,*,#216,.T.);
#423=ORIENTED_EDGE('',*,*,#410,.F.);
#424=ORIENTED_EDGE('',*,*,#393,.F.);
#425=EDGE_LOOP('',(#421,#422,#423,#424));
#426=FACE_OUTER_BOUND('',#425,.F.);
#427=ADVANCED_FACE('',(#426),#420,.F.);
#428=CARTESIAN_POINT('',(0.E0,3.4E-1,0.E0));
#429=DIRECTION('',(0.E0,-1.E0,0.E0));
#430=DIRECTION('',(6.208253564989E-3,0.E0,-9.999807286081E-1));
#431=AXIS2_PLACEMENT_3D('',#428,#429,#430);
#432=TOROIDAL_SURFACE('',#431,1.495E0,1.E-1);
#433=ORIENTED_EDGE('',*,*,#347,.T.);
#434=ORIENTED_EDGE('',*,*,#336,.T.);
#436=ORIENTED_EDGE('',*,*,#435,.F.);
#437=ORIENTED_EDGE('',*,*,#333,.F.);
#438=EDGE_LOOP('',(#433,#434,#436,#437));
#439=FACE_OUTER_BOUND('',#438,.F.);
#440=ADVANCED_FACE('',(#439),#432,.T.);
#441=CARTESIAN_POINT('',(0.E0,4.62E-1,0.E0));
#442=DIRECTION('',(0.E0,-1.E0,0.E0));
#443=DIRECTION('',(0.E0,0.E0,1.E0));
#444=AXIS2_PLACEMENT_3D('',#441,#442,#443);
#445=CYLINDRICAL_SURFACE('',#444,1.595E0);
#446=ORIENTED_EDGE('',*,*,#435,.T.);
#447=ORIENTED_EDGE('',*,*,#321,.F.);
#448=ORIENTED_EDGE('',*,*,#302,.F.);
#449=ORIENTED_EDGE('',*,*,#318,.T.);
#450=EDGE_LOOP('',(#446,#447,#448,#449));
#451=FACE_OUTER_BOUND('',#450,.F.);
#452=ADVANCED_FACE('',(#451),#445,.T.);
#453=CLOSED_SHELL('',(#222,#237,#250,#266,#281,#294,#310,#325,#340,#357,#372,
#385,#401,#415,#427,#440,#452));
#454=MANIFOLD_SOLID_BREP('',#453);
#455=DIMENSIONAL_EXPONENTS(1.E0,0.E0,0.E0,0.E0,0.E0,0.E0,0.E0);
#457=LENGTH_MEASURE_WITH_UNIT(LENGTH_MEASURE(2.54E1),#456);
#458=(CONVERSION_BASED_UNIT('INCH',#457)LENGTH_UNIT()NAMED_UNIT(#455));
#459=DIMENSIONAL_EXPONENTS(0.E0,0.E0,0.E0,0.E0,0.E0,0.E0,0.E0);
#461=PLANE_ANGLE_MEASURE_WITH_UNIT(PLANE_ANGLE_MEASURE(1.745329251994E-2),#460);
#462=(CONVERSION_BASED_UNIT('DEGREE',#461)NAMED_UNIT(*)PLANE_ANGLE_UNIT());
#464=UNCERTAINTY_MEASURE_WITH_UNIT(LENGTH_MEASURE(4.533239963259E-4),#458,
'closure',
'Maximum model space distance between geometric entities at asserted connectivities');
#465=(GEOMETRIC_REPRESENTATION_CONTEXT(3)GLOBAL_UNCERTAINTY_ASSIGNED_CONTEXT((
#464))GLOBAL_UNIT_ASSIGNED_CONTEXT((#458,#462,#463))REPRESENTATION_CONTEXT
('ID1','3'));
#466=CARTESIAN_POINT('',(0.E0,0.E0,0.E0));
#467=DIRECTION('',(0.E0,0.E0,1.E0));
#468=DIRECTION('',(1.E0,0.E0,0.E0));
#471=APPLICATION_CONTEXT(
'CONFIGURATION CONTROLLED 3D DESIGNS OF MECHANICAL PARTS AND ASSEMBLIES');
#472=APPLICATION_PROTOCOL_DEFINITION('international standard',
'config_control_design',1994,#471);
#473=DESIGN_CONTEXT('',#471,'design');
#474=MECHANICAL_CONTEXT('',#471,'mechanical');
#475=PRODUCT('169856','169856','NOT SPECIFIED',(#474));
#476=PRODUCT_DEFINITION_FORMATION_WITH_SPECIFIED_SOURCE('1','LAST_VERSION',#475,
.MADE.);
#485=CARTESIAN_POINT('',(0.E0,0.E0,0.E0));
#486=DIRECTION('',(0.E0,0.E0,1.E0));
#487=DIRECTION('',(1.E0,0.E0,0.E0));
#488=AXIS2_PLACEMENT_3D('',#485,#486,#487);
#489=ITEM_DEFINED_TRANSFORMATION('','',#469,#488);
#490=(REPRESENTATION_RELATIONSHIP('','',#470,#482)REPRESENTATION_RELATIONSHIP_WITH_TRANSFORMATION(#489)SHAPE_REPRESENTATION_RELATIONSHIP());
#491=CONTEXT_DEPENDENT_SHAPE_REPRESENTATION(#490,#484);
#493=DIMENSIONAL_EXPONENTS(0.E0,0.E0,0.E0,0.E0,0.E0,0.E0,0.E0);
#495=PLANE_ANGLE_MEASURE_WITH_UNIT(PLANE_ANGLE_MEASURE(1.745329251994E-2),#494);
#496=(CONVERSION_BASED_UNIT('DEGREE',#495)NAMED_UNIT(*)PLANE_ANGLE_UNIT());
#498=UNCERTAINTY_MEASURE_WITH_UNIT(LENGTH_MEASURE(1.151442950668E-2),#492,
'closure',
'Maximum model space distance between geometric entities at asserted connectivities');
#499=(GEOMETRIC_REPRESENTATION_CONTEXT(3)GLOBAL_UNCERTAINTY_ASSIGNED_CONTEXT((
#498))GLOBAL_UNIT_ASSIGNED_CONTEXT((#492,#496,#497))REPRESENTATION_CONTEXT
('ID2','3'));
#500=CARTESIAN_POINT('',(0.E0,0.E0,0.E0));
#501=DIRECTION('',(0.E0,0.E0,1.E0));
#502=DIRECTION('',(1.E0,0.E0,0.E0));
#504=MECHANICAL_CONTEXT('',#471,'mechanical');
#505=PRODUCT('192317_ASM','192317_ASM','NOT SPECIFIED',(#504));
#506=PRODUCT_DEFINITION_FORMATION_WITH_SPECIFIED_SOURCE('1','LAST_VERSION',#505,
.MADE.);
#508=PRODUCT_CATEGORY('part','');
#509=PRODUCT_RELATED_PRODUCT_CATEGORY('assembly','',(#505));
#510=PRODUCT_CATEGORY_RELATIONSHIP('','',#508,#509);
#511=PRODUCT_CATEGORY('part','');
#512=PRODUCT_RELATED_PRODUCT_CATEGORY('detail','',(#475));
#513=PRODUCT_CATEGORY_RELATIONSHIP('','',#511,#512);
#514=SECURITY_CLASSIFICATION_LEVEL('unclassified');
#515=SECURITY_CLASSIFICATION('','',#514);
#516=CC_DESIGN_SECURITY_CLASSIFICATION(#515,(#476,#506,#483));
#517=APPROVAL_STATUS('approved');
#518=APPROVAL(#517,'');
#519=CC_DESIGN_APPROVAL(#518,(#515,#476,#506,#477,#507));
#520=CALENDAR_DATE(115,18,12);
#521=COORDINATED_UNIVERSAL_TIME_OFFSET(6,0,.BEHIND.);
#522=LOCAL_TIME(13,52,3.1E1,#521);
#523=DATE_AND_TIME(#520,#522);
#524=APPROVAL_DATE_TIME(#523,#518);
#525=DATE_TIME_ROLE('creation_date');
#526=CC_DESIGN_DATE_AND_TIME_ASSIGNMENT(#523,#525,(#477,#507));
#527=DATE_TIME_ROLE('classification_date');
#528=CC_DESIGN_DATE_AND_TIME_ASSIGNMENT(#523,#527,(#515));
#529=PERSON('UNSPECIFIED','UNSPECIFIED',$,$,$,$);
#530=ORGANIZATION('UNSPECIFIED','UNSPECIFIED','UNSPECIFIED');
#531=PERSON_AND_ORGANIZATION(#529,#530);
#532=APPROVAL_ROLE('approver');
#533=APPROVAL_PERSON_ORGANIZATION(#531,#518,#532);
#534=PERSON_AND_ORGANIZATION_ROLE('creator');
#535=CC_DESIGN_PERSON_AND_ORGANIZATION_ASSIGNMENT(#531,#534,(#476,#506,#477,
#507));
#536=PERSON_AND_ORGANIZATION_ROLE('design_supplier');
#537=CC_DESIGN_PERSON_AND_ORGANIZATION_ASSIGNMENT(#531,#536,(#476,#506));
#538=PERSON_AND_ORGANIZATION_ROLE('classification_officer');
#539=CC_DESIGN_PERSON_AND_ORGANIZATION_ASSIGNMENT(#531,#538,(#515));
#540=PERSON_AND_ORGANIZATION_ROLE('design_owner');
#541=CC_DESIGN_PERSON_AND_ORGANIZATION_ASSIGNMENT(#531,#540,(#505,#475));
#5=CIRCLE('',#4,6.E-1);
#10=CIRCLE('',#9,6.E-1);
#15=CIRCLE('',#14,1.41E0);
#28=CIRCLE('',#27,1.41E0);
#33=CIRCLE('',#32,1.41E0);
#38=CIRCLE('',#37,1.41E0);
#43=CIRCLE('',#42,1.51E0);
#56=CIRCLE('',#55,1.51E0);
#61=CIRCLE('',#60,1.51E0);
#66=CIRCLE('',#65,1.51E0);
#71=CIRCLE('',#70,1.595E0);
#76=CIRCLE('',#75,1.595E0);
#81=CIRCLE('',#80,1.E-1);
#86=CIRCLE('',#85,1.495E0);
#91=CIRCLE('',#90,1.495E0);
#96=CIRCLE('',#95,1.4E-1);
#109=CIRCLE('',#108,1.4E-1);
#114=CIRCLE('',#113,1.4E-1);
#119=CIRCLE('',#118,1.4E-1);
#124=CIRCLE('',#123,6.E-1);
#137=CIRCLE('',#136,6.E-1);
#142=CIRCLE('',#141,1.E-1);
#147=CIRCLE('',#146,1.595E0);
#156=CIRCLE('',#155,1.595E0);
#210=EDGE_CURVE('',#191,#199,#15,.T.);
#212=EDGE_CURVE('',#191,#199,#28,.T.);
#216=EDGE_CURVE('',#180,#188,#5,.T.);
#218=EDGE_CURVE('',#180,#188,#10,.T.);
#228=EDGE_CURVE('',#191,#192,#19,.T.);
#231=EDGE_CURVE('',#199,#200,#23,.T.);
#233=EDGE_CURVE('',#192,#200,#38,.T.);
#244=EDGE_CURVE('',#192,#200,#33,.T.);
#256=EDGE_CURVE('',#195,#203,#43,.T.);
#258=EDGE_CURVE('',#195,#203,#56,.T.);
#272=EDGE_CURVE('',#195,#196,#47,.T.);
#275=EDGE_CURVE('',#203,#204,#51,.T.);
#277=EDGE_CURVE('',#196,#204,#66,.T.);
#288=EDGE_CURVE('',#196,#204,#61,.T.);
#300=EDGE_CURVE('',#170,#172,#76,.T.);
#302=EDGE_CURVE('',#170,#172,#156,.T.);
#316=EDGE_CURVE('',#167,#168,#71,.T.);
#318=EDGE_CURVE('',#170,#168,#160,.T.);
#321=EDGE_CURVE('',#172,#167,#151,.T.);
#331=EDGE_CURVE('',#163,#164,#86,.T.);
#333=EDGE_CURVE('',#164,#168,#142,.T.);
#336=EDGE_CURVE('',#163,#167,#81,.T.);
#347=EDGE_CURVE('',#164,#163,#91,.T.);
#351=EDGE_CURVE('',#175,#183,#96,.T.);
#353=EDGE_CURVE('',#175,#183,#109,.T.);
#363=EDGE_CURVE('',#175,#176,#100,.T.);
#366=EDGE_CURVE('',#183,#184,#104,.T.);
#368=EDGE_CURVE('',#176,#184,#119,.T.);
#379=EDGE_CURVE('',#176,#184,#114,.T.);
#391=EDGE_CURVE('',#179,#187,#124,.T.);
#393=EDGE_CURVE('',#179,#187,#137,.T.);
#407=EDGE_CURVE('',#179,#180,#128,.T.);
#410=EDGE_CURVE('',#187,#188,#132,.T.);
#435=EDGE_CURVE('',#168,#167,#147,.T.);
#456=(LENGTH_UNIT()NAMED_UNIT(*)SI_UNIT(.MILLI.,.METRE.));
#460=(NAMED_UNIT(*)PLANE_ANGLE_UNIT()SI_UNIT($,.RADIAN.));
#463=(NAMED_UNIT(*)SI_UNIT($,.STERADIAN.)SOLID_ANGLE_UNIT());
#469=AXIS2_PLACEMENT_3D('',#466,#467,#468);
#470=ADVANCED_BREP_SHAPE_REPRESENTATION('',(#469,#454),#465);
#477=PRODUCT_DEFINITION('design','',#476,#473);
#478=PRODUCT_DEFINITION_SHAPE('','SHAPE FOR 169856.',#477);
#479=SHAPE_DEFINITION_REPRESENTATION(#478,#470);
#480=SHAPE_DEFINITION_REPRESENTATION(#481,#482);
#481=PRODUCT_DEFINITION_SHAPE('','SHAPE FOR 192317_ASM.',#507);
#482=SHAPE_REPRESENTATION('',(#488,#503),#499);
#483=NEXT_ASSEMBLY_USAGE_OCCURRENCE('0','Next assembly relationship','169856',
#507,#477,$);
#484=PRODUCT_DEFINITION_SHAPE('Placement #0',
'Placement of 169856 with respect to 192317_ASM',#483);
#492=(LENGTH_UNIT()NAMED_UNIT(*)SI_UNIT(.MILLI.,.METRE.));
#494=(NAMED_UNIT(*)PLANE_ANGLE_UNIT()SI_UNIT($,.RADIAN.));
#497=(NAMED_UNIT(*)SI_UNIT($,.STERADIAN.)SOLID_ANGLE_UNIT());
#503=AXIS2_PLACEMENT_3D('',#500,#501,#502);
#507=PRODUCT_DEFINITION('design','',#506,#473);
ENDSEC;
END-ISO-10303-21;
