 PTC IGES file: 192280.igs                                              S      1
1H,,1H;,10H192280_ASM,10H192280.igs,                                    G      1
52HCreo Parametric by Parametric Technology Corporation,7H2013230,32,   G      2
38,7,38,15,10H192280_ASM,1.,2,2HMM,32768,0.5,15H20151217.105758,        G      3
0.00736371,  73.64,8Hpdmadmin,7HUnknown,10,0,15H20151217.105758;        G      4
     314       1       1       1       0       0       0       001000200D      1
     314       0       4       1       0                   COLOR       1D      2
     314       2       1       1       0       0       0       001000200D      3
     314       0       1       1       0                   COLOR       2D      4
     314       3       1       1       0       0       0       001000200D      5
     314       0       1       1       0                   COLOR       3D      6
     314       4       1       1       0       0       0       001000200D      7
     314       0       8       1       0                   COLOR       4D      8
     314       5       1       1       0       0       0       001000200D      9
     314       0       8       1       0                   COLOR       5D     10
     314       6       1       1       0       0       0       001000200D     11
     314       0       8       1       0                   COLOR       6D     12
     314       7       1       1       0       0       0       001000200D     13
     314       0       8       1       0                   COLOR       7D     14
     314       8       1       1       0       0       0       001000200D     15
     314       0       5       1       0                   COLOR       8D     16
     314       9       1       1       0       0       0       001000200D     17
     314       0       8       1       0                   COLOR       9D     18
     124      10       1       1       0       0       0       001000000D     19
     124       0       0       1       0                   XFORM       1D     20
     100      11       1       1  160300       0      19       001010000D     21
     100       0       8       1       0                     ARC       1D     22
     124      12       1       1       0       0       0       001000000D     23
     124       0       0       1       0                   XFORM       2D     24
     100      13       1       1  160300       0      23       001010000D     25
     100       0       8       1       0                     ARC       2D     26
     110      14       1       1  160300       0       0       001010000D     27
     110       0       8       1       0                    LINE       1D     28
     124      15       1       1       0       0       0       001000000D     29
     124       0       0       1       0                   XFORM       3D     30
     100      16       1       1  160300       0      29       001010000D     31
     100       0       8       1       0                     ARC       3D     32
     110      17       1       1  160300       0       0       001010000D     33
     110       0       8       1       0                    LINE       2D     34
     124      18       1       1       0       0       0       001000000D     35
     124       0       0       1       0                   XFORM       4D     36
     100      19       1       1  160300       0      35       001010000D     37
     100       0       8       1       0                     ARC       4D     38
     124      20       1       1       0       0       0       001000000D     39
     124       0       0       1       0                   XFORM       5D     40
     100      21       1       1  160300       0      39       001010000D     41
     100       0       8       1       0                     ARC       5D     42
     124      22       1       1       0       0       0       001000000D     43
     124       0       0       1       0                   XFORM       6D     44
     100      23       1       1  160300       0      43       001010000D     45
     100       0       8       1       0                     ARC       6D     46
     124      24       1       1       0       0       0       001000000D     47
     124       0       0       1       0                   XFORM       7D     48
     100      25       1       1  160300       0      47       001010000D     49
     100       0       8       1       0                     ARC       7D     50
     124      26       1       1       0       0       0       001000000D     51
     124       0       0       1       0                   XFORM       8D     52
     100      27       1       1  160300       0      51       001010000D     53
     100       0       8       1       0                     ARC       8D     54
     124      28       1       1       0       0       0       001000000D     55
     124       0       0       1       0                   XFORM       9D     56
     100      29       1       1  160300       0      55       001010000D     57
     100       0       8       1       0                     ARC       9D     58
     124      30       1       1       0       0       0       001000000D     59
     124       0       0       1       0                   XFORM      10D     60
     100      31       1       1  160300       0      59       001010000D     61
     100       0       8       1       0                     ARC      10D     62
     124      32       1       1       0       0       0       001000000D     63
     124       0       0       1       0                   XFORM      11D     64
     100      33       1       1  160300       0      63       001010000D     65
     100       0       8       1       0                     ARC      11D     66
     124      34       1       1       0       0       0       001000000D     67
     124       0       0       1       0                   XFORM      12D     68
     100      35       1       1  160300       0      67       001010000D     69
     100       0       8       1       0                     ARC      12D     70
     110      36       1       1  160300       0       0       001010000D     71
     110       0       8       1       0                    LINE       3D     72
     110      37       1       1  160300       0       0       001010000D     73
     110       0       8       1       0                    LINE       4D     74
     124      38       1       1       0       0       0       001000000D     75
     124       0       0       1       0                   XFORM      13D     76
     100      39       1       1  160300       0      75       001010000D     77
     100       0       8       1       0                     ARC      13D     78
     124      40       1       1       0       0       0       001000000D     79
     124       0       0       1       0                   XFORM      14D     80
     100      41       1       1  160300       0      79       001010000D     81
     100       0       8       1       0                     ARC      14D     82
     124      42       1       1       0       0       0       001000000D     83
     124       0       0       1       0                   XFORM      15D     84
     100      43       1       1  160300       0      83       001010000D     85
     100       0       8       1       0                     ARC      15D     86
     124      44       1       1       0       0       0       001000000D     87
     124       0       0       1       0                   XFORM      16D     88
     100      45       1       1  160300       0      87       001010000D     89
     100       0       8       1       0                     ARC      16D     90
     110      46       1       1  160300       0       0       001010000D     91
     110       0       8       1       0                    LINE       5D     92
     110      47       1       1  160300       0       0       001010000D     93
     110       0       8       1       0                    LINE       6D     94
     502      48       1       1  160300       0       0       001010000D     95
     502       0       8       4       1                  VERTEX       1D     96
     504      52       1       1  160300       0       0       000010001D     97
     504       0       8       5       1                    EDGE       1D     98
     128      57       1       1  160300       0       0       001010000D     99
     128       0       8       6       0                  SPLSRF       1D    100
     508      63       1       1  160300       0       0       001010000D    101
     508       0       0       1       1                EDGELOOP       1D    102
     508      64       1       1  160300       0       0       001010000D    103
     508       0       0       1       1                EDGELOOP       2D    104
     510      65       1       1  160300       0       0       000010000D    105
     510       0       8       1       1                    FACE       1D    106
     110      66       1       1  160300       0       0       001010000D    107
     110       0       8       1       0                    LINE       7D    108
     110      67       1       1  160300       0       0       001010000D    109
     110       0       8       1       0                    LINE       8D    110
     120      68       1       1  160300       0       0       001010000D    111
     120       0       8       1       0                    SREV       1D    112
     508      69       1       1  160300       0       0       001010000D    113
     508       0       0       1       1                EDGELOOP       3D    114
     510      70       1       1  160300       0       0       000010000D    115
     510       0       8       1       1                    FACE       2D    116
     110      71       1       1  160300       0       0       001010000D    117
     110       0       8       1       0                    LINE       9D    118
     110      72       1       1  160300       0       0       001010000D    119
     110       0       8       1       0                    LINE      10D    120
     120      73       1       1  160300       0       0       001010000D    121
     120       0       8       1       0                    SREV       2D    122
     508      74       1       1  160300       0       0       001010000D    123
     508       0       0       1       1                EDGELOOP       4D    124
     510      75       1       1  160300       0       0       000010000D    125
     510       0       8       1       1                    FACE       3D    126
     110      76       1       1  160300       0       0       001010000D    127
     110       0       8       1       0                    LINE      11D    128
     124      77       1       1       0       0       0       001000000D    129
     124       0       0       2       0                   XFORM      17D    130
     100      79       1       1  160300       0     129       001010000D    131
     100       0       8       1       0                     ARC      17D    132
     120      80       1       1  160300       0       0       001010000D    133
     120       0       8       1       0                    SREV       3D    134
     508      81       1       1  160300       0       0       001010000D    135
     508       0       0       1       1                EDGELOOP       5D    136
     510      82       1       1  160300       0       0       000010000D    137
     510       0       8       1       1                    FACE       4D    138
     110      83       1       1  160300       0       0       001010000D    139
     110       0       8       1       0                    LINE      12D    140
     124      84       1       1       0       0       0       001000000D    141
     124       0       0       2       0                   XFORM      18D    142
     100      86       1       1  160300       0     141       001010000D    143
     100       0       8       1       0                     ARC      18D    144
     120      87       1       1  160300       0       0       001010000D    145
     120       0       8       1       0                    SREV       4D    146
     508      88       1       1  160300       0       0       001010000D    147
     508       0       0       1       1                EDGELOOP       6D    148
     510      89       1       1  160300       0       0       000010000D    149
     510       0       8       1       1                    FACE       5D    150
     128      90       1       1  160300       0       0       001010000D    151
     128       0       8       6       0                  SPLSRF       2D    152
     508      96       1       1  160300       0       0       001010000D    153
     508       0       0       1       1                EDGELOOP       7D    154
     508      97       1       1  160300       0       0       001010000D    155
     508       0       0       1       1                EDGELOOP       8D    156
     510      98       1       1  160300       0       0       000010000D    157
     510       0       8       1       1                    FACE       6D    158
     110      99       1       1  160300       0       0       001010000D    159
     110       0       8       1       0                    LINE      13D    160
     110     100       1       1  160300       0       0       001010000D    161
     110       0       8       1       0                    LINE      14D    162
     120     101       1       1  160300       0       0       001010000D    163
     120       0       8       1       0                    SREV       5D    164
     508     102       1       1  160300       0       0       001010000D    165
     508       0       0       1       1                EDGELOOP       9D    166
     510     103       1       1  160300       0       0       000010000D    167
     510       0       8       1       1                    FACE       7D    168
     110     104       1       1  160300       0       0       001010000D    169
     110       0       8       1       0                    LINE      15D    170
     110     105       1       1  160300       0       0       001010000D    171
     110       0       8       1       0                    LINE      16D    172
     120     106       1       1  160300       0       0       001010000D    173
     120       0       8       1       0                    SREV       6D    174
     508     107       1       1  160300       0       0       001010000D    175
     508       0       0       1       1                EDGELOOP      10D    176
     510     108       1       1  160300       0       0       000010000D    177
     510       0       8       1       1                    FACE       8D    178
     128     109       1       1  160300       0       0       001010000D    179
     128       0       8       4       0                  SPLSRF       3D    180
     508     113       1       1  160300       0       0       001010000D    181
     508       0       0       1       1                EDGELOOP      11D    182
     508     114       1       1  160300       0       0       001010000D    183
     508       0       0       1       1                EDGELOOP      12D    184
     510     115       1       1  160300       0       0       000010000D    185
     510       0       8       1       1                    FACE       9D    186
     110     116       1       1  160300       0       0       001010000D    187
     110       0       8       1       0                    LINE      17D    188
     110     117       1       1  160300       0       0       001010000D    189
     110       0       8       1       0                    LINE      18D    190
     120     118       1       1  160300       0       0       001010000D    191
     120       0       8       1       0                    SREV       7D    192
     508     119       1       1  160300       0       0       001010000D    193
     508       0       0       1       1                EDGELOOP      13D    194
     510     120       1       1  160300       0       0       000010000D    195
     510       0       8       1       1                    FACE      10D    196
     110     121       1       1  160300       0       0       001010000D    197
     110       0       8       1       0                    LINE      19D    198
     110     122       1       1  160300       0       0       001010000D    199
     110       0       8       1       0                    LINE      20D    200
     120     123       1       1  160300       0       0       001010000D    201
     120       0       8       1       0                    SREV       8D    202
     508     124       1       1  160300       0       0       001010000D    203
     508       0       0       1       1                EDGELOOP      14D    204
     510     125       1       1  160300       0       0       000010000D    205
     510       0       8       1       1                    FACE      11D    206
     514     126       1       1  160300       0       0       000010000D    207
     514       0       8       2       1                   SHELL       1D    208
     186     128       1       1       0       0       0       000000000D    209
     186       0       8       1       0                    MSBR       1D    210
     406     129       1       1       0       0       0       001000000D    211
     406       0       0       1      15                    PROP       1D    212
     402     130       1       1       0       0       0       000000300D    213
     402       0       0       5       7                   LAYER       1D    214
314,1.1D0,1.2D0,1D2;                                                   1P      1
314,3.92D1,1.2D0,1.2D0;                                                3P      2
314,4.1D1,0D0,2.2D1;                                                   5P      3
314,6.952D1,7.426D1,7.9D1;                                             7P      4
314,7.84314D1,7.84314D1,7.84314D1;                                     9P      5
314,8.784D1,9.49D1,1D2;                                               11P      6
314,9.6D1,9.6D1,9.6D1;                                                13P      7
314,9.8D1,6.27D1,0D0;                                                 15P      8
314,1D2,1D2,9.49D1;                                                   17P      9
124,0D0,-1D0,0D0,0D0,0D0,0D0,1D0,0D0,-1D0,0D0,0D0,0D0;                19P     10
100,0D0,0D0,0D0,1.1D1,0D0,-1.1D1,0D0;                                 21P     11
124,0D0,1D0,0D0,0D0,0D0,0D0,1D0,0D0,1D0,0D0,0D0,0D0;                  23P     12
100,0D0,0D0,0D0,1.1D1,0D0,-1.1D1,0D0;                                 25P     13
110,0D0,0D0,-2.59D1,0D0,4.1D0,-2.59D1;                                27P     14
124,0D0,1D0,0D0,0D0,0D0,0D0,-1D0,0D0,-1D0,0D0,0D0,0D0;                29P     15
100,0D0,0D0,0D0,2.59D1,0D0,-2.59D1,0D0;                               31P     16
110,0D0,0D0,2.59D1,0D0,4.1D0,2.59D1;                                  33P     17
124,0D0,-1D0,0D0,0D0,0D0,0D0,1D0,0D0,-1D0,0D0,0D0,0D0;                35P     18
100,0D0,0D0,0D0,2.59D1,0D0,-2.59D1,0D0;                               37P     19
124,0D0,-1D0,0D0,0D0,0D0,0D0,1D0,4.1D0,-1D0,0D0,0D0,0D0;              39P     20
100,0D0,0D0,0D0,2.59D1,0D0,-2.59D1,0D0;                               41P     21
124,0D0,0D0,1D0,0D0,0D0,1D0,0D0,4.1D0,-1D0,0D0,0D0,-2.26D1;           43P     22
100,0D0,0D0,0D0,3.3D0,0D0,0D0,3.3D0;                                  45P     23
124,0D0,1D0,0D0,0D0,0D0,0D0,-1D0,4.1D0,-1D0,0D0,0D0,0D0;              47P     24
100,0D0,0D0,0D0,2.59D1,0D0,-2.59D1,0D0;                               49P     25
124,0D0,0D0,-1D0,0D0,0D0,1D0,0D0,4.1D0,1D0,0D0,0D0,2.26D1;            51P     26
100,0D0,0D0,0D0,3.3D0,0D0,0D0,3.3D0;                                  53P     27
124,0D0,1D0,0D0,0D0,0D0,0D0,-1D0,7.4D0,-1D0,0D0,0D0,0D0;              55P     28
100,0D0,0D0,0D0,2.26D1,0D0,-2.26D1,0D0;                               57P     29
124,0D0,-1D0,0D0,0D0,0D0,0D0,1D0,7.4D0,-1D0,0D0,0D0,0D0;              59P     30
100,0D0,0D0,0D0,2.26D1,0D0,-2.26D1,0D0;                               61P     31
124,1D0,0D0,0D0,0D0,0D0,0D0,1D0,7.4D0,0D0,-1D0,0D0,0D0;               63P     32
100,0D0,0D0,0D0,2.54D0,0D0,-2.54D0,0D0;                               65P     33
124,-1D0,0D0,0D0,0D0,0D0,0D0,1D0,7.4D0,0D0,1D0,0D0,0D0;               67P     34
100,0D0,0D0,0D0,2.54D0,0D0,-2.54D0,0D0;                               69P     35
110,2.54D0,7.4D0,0D0,2.54D0,5.4D0,0D0;                                71P     36
110,-2.54D0,7.4D0,0D0,-2.54D0,5.4D0,0D0;                              73P     37
124,0D0,-1D0,0D0,0D0,0D0,0D0,1D0,5.4D0,-1D0,0D0,0D0,0D0;              75P     38
100,0D0,0D0,0D0,1.1D1,0D0,-1.1D1,0D0;                                 77P     39
124,0D0,1D0,0D0,0D0,0D0,0D0,1D0,5.4D0,1D0,0D0,0D0,0D0;                79P     40
100,0D0,0D0,0D0,1.1D1,0D0,-1.1D1,0D0;                                 81P     41
124,1D0,0D0,0D0,0D0,0D0,0D0,1D0,5.4D0,0D0,-1D0,0D0,0D0;               83P     42
100,0D0,0D0,0D0,2.54D0,0D0,-2.54D0,0D0;                               85P     43
124,-1D0,0D0,0D0,0D0,0D0,0D0,1D0,5.4D0,0D0,1D0,0D0,0D0;               87P     44
100,0D0,0D0,0D0,2.54D0,0D0,-2.54D0,0D0;                               89P     45
110,0D0,5.4D0,-1.1D1,0D0,0D0,-1.1D1;                                  91P     46
110,0D0,5.4D0,1.1D1,0D0,0D0,1.1D1;                                    93P     47
502,14,0D0,0D0,-2.59D1,0D0,4.1D0,-2.59D1,0D0,7.4D0,-2.26D1,0D0,       95P     48
0D0,2.59D1,0D0,4.1D0,2.59D1,0D0,7.4D0,2.26D1,0D0,5.4D0,-1.1D1,        95P     49
0D0,5.4D0,1.1D1,0D0,0D0,-1.1D1,0D0,0D0,1.1D1,2.54D0,7.4D0,0D0,        95P     50
-2.54D0,7.4D0,0D0,2.54D0,5.4D0,0D0,-2.54D0,5.4D0,0D0;                 95P     51
504,22,27,95,1,95,2,45,95,2,95,3,33,95,4,95,5,53,95,5,95,6,37,        97P     52
95,1,95,4,41,95,2,95,5,61,95,3,95,6,31,95,1,95,4,49,95,2,95,5,        97P     53
57,95,3,95,6,77,95,7,95,8,81,95,8,95,7,21,95,9,95,10,25,95,10,        97P     54
95,9,91,95,7,95,9,93,95,8,95,10,65,95,11,95,12,69,95,12,95,11,        97P     55
85,95,13,95,14,89,95,14,95,13,71,95,11,95,13,73,95,12,95,14;          97P     56
128,1,1,1,1,0,0,1,0,0,-2.6936D1,-2.6936D1,2.6936D1,2.6936D1,          99P     57
-2.694408358968D1,-2.694408358968D1,2.694408358968D1,                 99P     58
2.694408358968D1,1D0,1D0,1D0,1D0,2.694408358968D1,0D0,2.6936D1,       99P     59
2.694408358968D1,0D0,-2.6936D1,-2.694408358968D1,0D0,2.6936D1,        99P     60
-2.694408358968D1,0D0,-2.6936D1,-2.6936D1,2.6936D1,                   99P     61
-2.694408358968D1,2.694408358968D1;                                   99P     62
508,2,0,97,8,0,0,0,97,5,1,0;                                         101P     63
508,2,0,97,13,0,0,0,97,14,0,0;                                       103P     64
510,99,2,0,101,103;                                                  105P     65
110,0D0,-3.7D-1,0D0,0D0,6.3D-1,0D0;                                  107P     66
110,0D0,-8.836800930023D-2,-2.59D1,0D0,4.188368009300D0,-2.59D1;     109P     67
120,107,109,-3.204424506662D0,6.283185307180D-2;                     111P     68
508,4,0,97,1,0,0,0,97,8,1,0,0,97,3,1,0,0,97,9,0,0;                   113P     69
510,111,1,0,113;                                                     115P     70
110,0D0,-3.7D-1,0D0,0D0,6.3D-1,0D0;                                  117P     71
110,0D0,-8.836800930023D-2,-2.59D1,0D0,4.188368009300D0,-2.59D1;     119P     72
120,117,119,-6.283185307180D-2,3.204424506662D0;                     121P     73
508,4,0,97,1,1,0,0,97,6,1,0,0,97,3,0,0,0,97,5,0,0;                   123P     74
510,121,1,0,123;                                                     125P     75
110,0D0,4.1D0,0D0,0D0,5.1D0,0D0;                                     127P     76
124,0D0,0D0,1D0,0D0,-3.141075907813D-2,9.995065603657D-1,0D0,        129P     77
4.1D0,-9.995065603657D-1,-3.141075907813D-2,0D0,-2.26D1;             129P     78
100,0D0,0D0,0D0,3.3D0,0D0,-2.072087144467D-1,3.293488203813D0;       131P     79
120,127,131,-6.283185307180D-2,3.204424506662D0;                     133P     80
508,4,0,97,2,1,0,0,97,7,1,0,0,97,4,0,0,0,97,6,0,0;                   135P     81
510,133,1,0,135;                                                     137P     82
110,0D0,4.1D0,0D0,0D0,5.1D0,0D0;                                     139P     83
124,0D0,0D0,1D0,0D0,-3.141075907813D-2,9.995065603657D-1,0D0,        141P     84
4.1D0,-9.995065603657D-1,-3.141075907813D-2,0D0,-2.26D1;             141P     85
100,0D0,0D0,0D0,3.3D0,0D0,-2.072087144467D-1,3.293488203813D0;       143P     86
120,139,143,-3.204424506662D0,6.283185307180D-2;                     145P     87
508,4,0,97,2,0,0,0,97,9,1,0,0,97,4,1,0,0,97,10,0,0;                  147P     88
510,145,1,0,147;                                                     149P     89
128,1,1,1,1,0,0,1,0,0,-2.3504D1,-2.3504D1,2.3504D1,2.3504D1,         151P     90
-2.351192784031D1,-2.351192784031D1,2.351192784031D1,                151P     91
2.351192784031D1,1D0,1D0,1D0,1D0,2.351192784031D1,7.4D0,             151P     92
2.3504D1,2.351192784031D1,7.4D0,-2.3504D1,-2.351192784031D1,         151P     93
7.4D0,2.3504D1,-2.351192784031D1,7.4D0,-2.3504D1,-2.3504D1,          151P     94
2.3504D1,-2.351192784031D1,2.351192784031D1;                         151P     95
508,2,0,97,10,1,0,0,97,7,0,0;                                        153P     96
508,2,0,97,17,1,0,0,97,18,1,0;                                       155P     97
510,151,2,0,153,155;                                                 157P     98
110,0D0,7.4D0,0D0,0D0,8.4D0,0D0;                                     159P     99
110,2.54D0,5.311631990700D0,0D0,2.54D0,7.488368009300D0,0D0;         161P    100
120,159,161,-6.283185307180D-2,3.204424506662D0;                     163P    101
508,4,0,97,17,0,0,0,97,21,1,0,0,97,19,1,0,0,97,22,0,0;               165P    102
510,163,1,0,165;                                                     167P    103
110,0D0,7.4D0,0D0,0D0,8.4D0,0D0;                                     169P    104
110,2.54D0,5.311631990700D0,0D0,2.54D0,7.488368009300D0,0D0;         171P    105
120,169,171,3.078760800518D0,6.346017160251D0;                       173P    106
508,4,0,97,18,0,0,0,97,22,1,0,0,97,20,1,0,0,97,21,0,0;               175P    107
510,173,1,0,175;                                                     177P    108
128,1,1,1,1,0,0,1,0,0,-1.144D1,-1.144D1,1.144D1,1.144D1,             179P    109
-1.144D1,-1.144D1,1.144D1,1.144D1,1D0,1D0,1D0,1D0,1.144D1,5.4D0,     179P    110
1.144D1,1.144D1,5.4D0,-1.144D1,-1.144D1,5.4D0,1.144D1,-1.144D1,      179P    111
5.4D0,-1.144D1,-1.144D1,1.144D1,-1.144D1,1.144D1;                    179P    112
508,2,0,97,11,1,0,0,97,12,1,0;                                       181P    113
508,2,0,97,19,0,0,0,97,20,0,0;                                       183P    114
510,179,2,0,181,183;                                                 185P    115
110,0D0,5.4D0,0D0,0D0,6.4D0,0D0;                                     187P    116
110,0D0,-1.08D-1,-1.1D1,0D0,5.508D0,-1.1D1;                          189P    117
120,187,189,-6.283185307180D-2,3.204424506662D0;                     191P    118
508,4,0,97,13,1,0,0,97,16,0,0,0,97,11,0,0,0,97,15,1,0;               193P    119
510,191,1,0,193;                                                     195P    120
110,0D0,5.4D0,0D0,0D0,6.4D0,0D0;                                     197P    121
110,0D0,-1.08D-1,-1.1D1,0D0,5.508D0,-1.1D1;                          199P    122
120,197,199,3.078760800518D0,6.346017160251D0;                       201P    123
508,4,0,97,14,1,0,0,97,15,0,0,0,97,12,0,0,0,97,16,1,0;               203P    124
510,201,1,0,203;                                                     205P    125
514,11,105,0,115,1,125,1,137,1,149,1,157,1,167,0,177,0,185,0,        207P    126
195,0,205,0;                                                         207P    127
186,207,1,0;                                                         209P    128
406,1,6H160300;                                                      211P    129
402,78,21,25,27,31,33,37,41,45,49,53,57,61,65,69,71,73,77,81,85,     213P    130
89,91,93,95,97,99,101,103,105,107,109,111,113,115,117,119,121,       213P    131
123,125,127,131,133,135,137,139,143,145,147,149,151,153,155,157,     213P    132
159,161,163,165,167,169,171,173,175,177,179,181,183,185,187,189,     213P    133
191,193,195,197,199,201,203,205,207,209,0,1,211;                     213P    134
S      1G      4D    214P    134                                        T      1
