ISO-10303-21;
HEADER;
FILE_DESCRIPTION((''),'2;1');
FILE_NAME('190842_ASM','2016-01-11T',('pdmadmin'),(''),
'PRO/ENGINEER BY PARAMETRIC TECHNOLOGY CORPORATION, 2013230',
'PRO/ENGINEER BY PARAMETRIC TECHNOLOGY CORPORATION, 2013230','');
FILE_SCHEMA(('CONFIG_CONTROL_DESIGN'));
ENDSEC;
DATA;
#1=CARTESIAN_POINT('',(0.E0,-1.5625E-1,0.E0));
#2=DIRECTION('',(0.E0,-1.E0,0.E0));
#3=DIRECTION('',(-1.E0,0.E0,0.E0));
#4=AXIS2_PLACEMENT_3D('',#1,#2,#3);
#6=CARTESIAN_POINT('',(0.E0,-1.5625E-1,0.E0));
#7=DIRECTION('',(0.E0,-1.E0,0.E0));
#8=DIRECTION('',(1.E0,0.E0,0.E0));
#9=AXIS2_PLACEMENT_3D('',#6,#7,#8);
#11=CARTESIAN_POINT('',(0.E0,-1.5625E-1,0.E0));
#12=DIRECTION('',(0.E0,-1.E0,0.E0));
#13=DIRECTION('',(1.E0,0.E0,0.E0));
#14=AXIS2_PLACEMENT_3D('',#11,#12,#13);
#16=CARTESIAN_POINT('',(0.E0,-1.5625E-1,0.E0));
#17=DIRECTION('',(0.E0,-1.E0,0.E0));
#18=DIRECTION('',(-1.E0,0.E0,0.E0));
#19=AXIS2_PLACEMENT_3D('',#16,#17,#18);
#21=CARTESIAN_POINT('',(-9.7E-1,-1.0625E-1,0.E0));
#22=DIRECTION('',(0.E0,0.E0,-1.E0));
#23=DIRECTION('',(0.E0,-1.E0,0.E0));
#24=AXIS2_PLACEMENT_3D('',#21,#22,#23);
#26=CARTESIAN_POINT('',(9.7E-1,-1.0625E-1,0.E0));
#27=DIRECTION('',(0.E0,0.E0,1.E0));
#28=DIRECTION('',(0.E0,-1.E0,0.E0));
#29=AXIS2_PLACEMENT_3D('',#26,#27,#28);
#31=CARTESIAN_POINT('',(0.E0,1.0625E-1,0.E0));
#32=DIRECTION('',(0.E0,1.E0,0.E0));
#33=DIRECTION('',(-1.E0,0.E0,0.E0));
#34=AXIS2_PLACEMENT_3D('',#31,#32,#33);
#36=CARTESIAN_POINT('',(0.E0,-1.0625E-1,0.E0));
#37=DIRECTION('',(0.E0,-1.E0,0.E0));
#38=DIRECTION('',(1.E0,0.E0,0.E0));
#39=AXIS2_PLACEMENT_3D('',#36,#37,#38);
#41=DIRECTION('',(0.E0,1.E0,-3.252708560014E-14));
#42=VECTOR('',#41,2.125E-1);
#43=CARTESIAN_POINT('',(-1.02E0,-1.0625E-1,4.954911654314E-14));
#44=LINE('',#43,#42);
#45=CARTESIAN_POINT('',(-9.7E-1,1.0625E-1,0.E0));
#46=DIRECTION('',(0.E0,0.E0,1.E0));
#47=DIRECTION('',(0.E0,1.E0,0.E0));
#48=AXIS2_PLACEMENT_3D('',#45,#46,#47);
#50=CARTESIAN_POINT('',(0.E0,1.5625E-1,0.E0));
#51=DIRECTION('',(0.E0,1.E0,0.E0));
#52=DIRECTION('',(-1.E0,0.E0,0.E0));
#53=AXIS2_PLACEMENT_3D('',#50,#51,#52);
#55=CARTESIAN_POINT('',(0.E0,1.5625E-1,0.E0));
#56=DIRECTION('',(0.E0,1.E0,0.E0));
#57=DIRECTION('',(1.E0,0.E0,0.E0));
#58=AXIS2_PLACEMENT_3D('',#55,#56,#57);
#60=CARTESIAN_POINT('',(0.E0,1.5625E-1,0.E0));
#61=DIRECTION('',(0.E0,-1.E0,0.E0));
#62=DIRECTION('',(1.E0,0.E0,0.E0));
#63=AXIS2_PLACEMENT_3D('',#60,#61,#62);
#65=CARTESIAN_POINT('',(0.E0,1.5625E-1,0.E0));
#66=DIRECTION('',(0.E0,-1.E0,0.E0));
#67=DIRECTION('',(-1.E0,0.E0,0.E0));
#68=AXIS2_PLACEMENT_3D('',#65,#66,#67);
#70=CARTESIAN_POINT('',(9.7E-1,1.0625E-1,0.E0));
#71=DIRECTION('',(0.E0,0.E0,-1.E0));
#72=DIRECTION('',(0.E0,1.E0,0.E0));
#73=AXIS2_PLACEMENT_3D('',#70,#71,#72);
#75=CARTESIAN_POINT('',(0.E0,1.0625E-1,0.E0));
#76=DIRECTION('',(0.E0,1.E0,0.E0));
#77=DIRECTION('',(1.E0,0.E0,0.E0));
#78=AXIS2_PLACEMENT_3D('',#75,#76,#77);
#80=CARTESIAN_POINT('',(0.E0,-1.0625E-1,0.E0));
#81=DIRECTION('',(0.E0,-1.E0,0.E0));
#82=DIRECTION('',(-1.E0,0.E0,0.E0));
#83=AXIS2_PLACEMENT_3D('',#80,#81,#82);
#85=DIRECTION('',(0.E0,1.E0,3.241790006371E-14));
#86=VECTOR('',#85,2.125E-1);
#87=CARTESIAN_POINT('',(1.02E0,-1.0625E-1,-4.941206991773E-14));
#88=LINE('',#87,#86);
#89=DIRECTION('',(0.E0,-1.E0,0.E0));
#90=VECTOR('',#89,2.45E-2);
#91=CARTESIAN_POINT('',(1.E-1,1.5625E-1,0.E0));
#92=LINE('',#91,#90);
#93=CARTESIAN_POINT('',(0.E0,1.3175E-1,0.E0));
#94=DIRECTION('',(0.E0,-1.E0,0.E0));
#95=DIRECTION('',(1.E0,0.E0,0.E0));
#96=AXIS2_PLACEMENT_3D('',#93,#94,#95);
#98=CARTESIAN_POINT('',(0.E0,1.3175E-1,0.E0));
#99=DIRECTION('',(0.E0,-1.E0,0.E0));
#100=DIRECTION('',(-1.E0,0.E0,0.E0));
#101=AXIS2_PLACEMENT_3D('',#98,#99,#100);
#103=CARTESIAN_POINT('',(0.E0,-1.3125E-1,0.E0));
#104=DIRECTION('',(0.E0,-1.E0,0.E0));
#105=DIRECTION('',(1.E0,0.E0,0.E0));
#106=AXIS2_PLACEMENT_3D('',#103,#104,#105);
#108=DIRECTION('',(0.E0,1.E0,0.E0));
#109=VECTOR('',#108,2.5E-2);
#110=CARTESIAN_POINT('',(8.25E-1,-1.5625E-1,0.E0));
#111=LINE('',#110,#109);
#112=CARTESIAN_POINT('',(0.E0,1.3125E-1,0.E0));
#113=DIRECTION('',(0.E0,-1.E0,0.E0));
#114=DIRECTION('',(1.E0,0.E0,0.E0));
#115=AXIS2_PLACEMENT_3D('',#112,#113,#114);
#117=DIRECTION('',(0.E0,1.E0,6.735557395310E-14));
#118=VECTOR('',#117,5.E-4);
#119=CARTESIAN_POINT('',(8.25E-1,1.3125E-1,0.E0));
#120=LINE('',#119,#118);
#121=CARTESIAN_POINT('',(0.E0,1.3175E-1,0.E0));
#122=DIRECTION('',(0.E0,-1.E0,0.E0));
#123=DIRECTION('',(1.E0,0.E0,0.E0));
#124=AXIS2_PLACEMENT_3D('',#121,#122,#123);
#126=CARTESIAN_POINT('',(0.E0,-1.3125E-1,0.E0));
#127=DIRECTION('',(0.E0,-1.E0,0.E0));
#128=DIRECTION('',(-1.E0,0.E0,0.E0));
#129=AXIS2_PLACEMENT_3D('',#126,#127,#128);
#131=CARTESIAN_POINT('',(0.E0,-1.3125E-1,0.E0));
#132=DIRECTION('',(0.E0,-1.E0,0.E0));
#133=DIRECTION('',(1.E0,0.E0,0.E0));
#134=AXIS2_PLACEMENT_3D('',#131,#132,#133);
#136=CARTESIAN_POINT('',(-9.7E-1,-1.0625E-1,0.E0));
#137=DIRECTION('',(0.E0,0.E0,-1.E0));
#138=DIRECTION('',(0.E0,-1.E0,0.E0));
#139=AXIS2_PLACEMENT_3D('',#136,#137,#138);
#141=CARTESIAN_POINT('',(9.7E-1,-1.0625E-1,0.E0));
#142=DIRECTION('',(0.E0,0.E0,1.E0));
#143=DIRECTION('',(0.E0,-1.E0,0.E0));
#144=AXIS2_PLACEMENT_3D('',#141,#142,#143);
#146=CARTESIAN_POINT('',(0.E0,1.0625E-1,0.E0));
#147=DIRECTION('',(0.E0,1.E0,0.E0));
#148=DIRECTION('',(-1.E0,0.E0,0.E0));
#149=AXIS2_PLACEMENT_3D('',#146,#147,#148);
#151=DIRECTION('',(0.E0,1.E0,-3.172911280119E-14));
#152=VECTOR('',#151,2.125E-1);
#153=CARTESIAN_POINT('',(-9.95E-1,-1.0625E-1,4.833482303541E-14));
#154=LINE('',#153,#152);
#155=CARTESIAN_POINT('',(0.E0,-1.0625E-1,0.E0));
#156=DIRECTION('',(0.E0,-1.E0,0.E0));
#157=DIRECTION('',(1.E0,0.E0,0.E0));
#158=AXIS2_PLACEMENT_3D('',#155,#156,#157);
#160=CARTESIAN_POINT('',(-9.7E-1,1.0625E-1,0.E0));
#161=DIRECTION('',(0.E0,0.E0,1.E0));
#162=DIRECTION('',(0.E0,1.E0,0.E0));
#163=AXIS2_PLACEMENT_3D('',#160,#161,#162);
#165=CARTESIAN_POINT('',(0.E0,1.3125E-1,0.E0));
#166=DIRECTION('',(0.E0,1.E0,0.E0));
#167=DIRECTION('',(-1.E0,0.E0,0.E0));
#168=AXIS2_PLACEMENT_3D('',#165,#166,#167);
#170=CARTESIAN_POINT('',(0.E0,1.3125E-1,0.E0));
#171=DIRECTION('',(0.E0,1.E0,0.E0));
#172=DIRECTION('',(1.E0,0.E0,0.E0));
#173=AXIS2_PLACEMENT_3D('',#170,#171,#172);
#175=CARTESIAN_POINT('',(9.7E-1,1.0625E-1,0.E0));
#176=DIRECTION('',(0.E0,0.E0,-1.E0));
#177=DIRECTION('',(0.E0,1.E0,0.E0));
#178=AXIS2_PLACEMENT_3D('',#175,#176,#177);
#180=CARTESIAN_POINT('',(0.E0,1.0625E-1,0.E0));
#181=DIRECTION('',(0.E0,1.E0,0.E0));
#182=DIRECTION('',(1.E0,0.E0,0.E0));
#183=AXIS2_PLACEMENT_3D('',#180,#181,#182);
#185=DIRECTION('',(0.E0,1.E0,3.162298854148E-14));
#186=VECTOR('',#185,2.125E-1);
#187=CARTESIAN_POINT('',(9.95E-1,-1.0625E-1,-4.820114389946E-14));
#188=LINE('',#187,#186);
#189=CARTESIAN_POINT('',(0.E0,-1.0625E-1,0.E0));
#190=DIRECTION('',(0.E0,-1.E0,0.E0));
#191=DIRECTION('',(-1.E0,0.E0,0.E0));
#192=AXIS2_PLACEMENT_3D('',#189,#190,#191);
#194=CARTESIAN_POINT('',(0.E0,-1.3125E-1,0.E0));
#195=DIRECTION('',(0.E0,-1.E0,0.E0));
#196=DIRECTION('',(-1.E0,0.E0,0.E0));
#197=AXIS2_PLACEMENT_3D('',#194,#195,#196);
#199=DIRECTION('',(0.E0,1.E0,0.E0));
#200=VECTOR('',#199,2.5E-2);
#201=CARTESIAN_POINT('',(-8.25E-1,-1.5625E-1,0.E0));
#202=LINE('',#201,#200);
#203=CARTESIAN_POINT('',(0.E0,1.3125E-1,0.E0));
#204=DIRECTION('',(0.E0,-1.E0,0.E0));
#205=DIRECTION('',(-1.E0,0.E0,0.E0));
#206=AXIS2_PLACEMENT_3D('',#203,#204,#205);
#208=DIRECTION('',(0.E0,1.E0,0.E0));
#209=VECTOR('',#208,5.E-4);
#210=CARTESIAN_POINT('',(-8.25E-1,1.3125E-1,0.E0));
#211=LINE('',#210,#209);
#212=CARTESIAN_POINT('',(0.E0,1.3175E-1,0.E0));
#213=DIRECTION('',(0.E0,-1.E0,0.E0));
#214=DIRECTION('',(-1.E0,0.E0,0.E0));
#215=AXIS2_PLACEMENT_3D('',#212,#213,#214);
#217=DIRECTION('',(0.E0,-1.E0,0.E0));
#218=VECTOR('',#217,2.45E-2);
#219=CARTESIAN_POINT('',(-1.E-1,1.5625E-1,0.E0));
#220=LINE('',#219,#218);
#221=CARTESIAN_POINT('',(-9.7E-1,1.5625E-1,0.E0));
#222=CARTESIAN_POINT('',(9.7E-1,1.5625E-1,0.E0));
#223=VERTEX_POINT('',#221);
#224=VERTEX_POINT('',#222);
#225=CARTESIAN_POINT('',(-1.02E0,1.0625E-1,0.E0));
#226=CARTESIAN_POINT('',(1.02E0,1.0625E-1,0.E0));
#227=VERTEX_POINT('',#225);
#228=VERTEX_POINT('',#226);
#229=CARTESIAN_POINT('',(-9.7E-1,-1.5625E-1,0.E0));
#230=CARTESIAN_POINT('',(9.7E-1,-1.5625E-1,0.E0));
#231=VERTEX_POINT('',#229);
#232=VERTEX_POINT('',#230);
#233=CARTESIAN_POINT('',(-1.02E0,-1.0625E-1,0.E0));
#234=CARTESIAN_POINT('',(1.02E0,-1.0625E-1,0.E0));
#235=VERTEX_POINT('',#233);
#236=VERTEX_POINT('',#234);
#237=CARTESIAN_POINT('',(8.25E-1,-1.5625E-1,0.E0));
#238=CARTESIAN_POINT('',(-8.25E-1,-1.5625E-1,0.E0));
#239=VERTEX_POINT('',#237);
#240=VERTEX_POINT('',#238);
#241=CARTESIAN_POINT('',(8.25E-1,1.3175E-1,0.E0));
#242=CARTESIAN_POINT('',(-8.25E-1,1.3175E-1,0.E0));
#243=VERTEX_POINT('',#241);
#244=VERTEX_POINT('',#242);
#245=CARTESIAN_POINT('',(-9.7E-1,1.3125E-1,0.E0));
#246=CARTESIAN_POINT('',(9.7E-1,1.3125E-1,0.E0));
#247=VERTEX_POINT('',#245);
#248=VERTEX_POINT('',#246);
#249=CARTESIAN_POINT('',(-9.95E-1,1.0625E-1,0.E0));
#250=CARTESIAN_POINT('',(9.95E-1,1.0625E-1,0.E0));
#251=VERTEX_POINT('',#249);
#252=VERTEX_POINT('',#250);
#253=CARTESIAN_POINT('',(-9.7E-1,-1.3125E-1,0.E0));
#254=CARTESIAN_POINT('',(9.7E-1,-1.3125E-1,0.E0));
#255=VERTEX_POINT('',#253);
#256=VERTEX_POINT('',#254);
#257=CARTESIAN_POINT('',(-9.95E-1,-1.0625E-1,0.E0));
#258=CARTESIAN_POINT('',(9.95E-1,-1.0625E-1,0.E0));
#259=VERTEX_POINT('',#257);
#260=VERTEX_POINT('',#258);
#261=CARTESIAN_POINT('',(8.25E-1,-1.3125E-1,0.E0));
#262=CARTESIAN_POINT('',(-8.25E-1,-1.3125E-1,0.E0));
#263=VERTEX_POINT('',#261);
#264=VERTEX_POINT('',#262);
#265=CARTESIAN_POINT('',(1.E-1,1.3175E-1,0.E0));
#266=CARTESIAN_POINT('',(-1.E-1,1.3175E-1,0.E0));
#267=VERTEX_POINT('',#265);
#268=VERTEX_POINT('',#266);
#269=CARTESIAN_POINT('',(1.E-1,1.5625E-1,0.E0));
#270=CARTESIAN_POINT('',(-1.E-1,1.5625E-1,0.E0));
#271=VERTEX_POINT('',#269);
#272=VERTEX_POINT('',#270);
#273=CARTESIAN_POINT('',(8.25E-1,1.3125E-1,0.E0));
#274=CARTESIAN_POINT('',(-8.25E-1,1.3125E-1,0.E0));
#275=VERTEX_POINT('',#273);
#276=VERTEX_POINT('',#274);
#277=CARTESIAN_POINT('',(0.E0,-1.5625E-1,0.E0));
#278=DIRECTION('',(0.E0,1.E0,0.E0));
#279=DIRECTION('',(1.E0,0.E0,0.E0));
#280=AXIS2_PLACEMENT_3D('',#277,#278,#279);
#281=PLANE('',#280);
#283=ORIENTED_EDGE('',*,*,#282,.F.);
#285=ORIENTED_EDGE('',*,*,#284,.F.);
#286=EDGE_LOOP('',(#283,#285));
#287=FACE_OUTER_BOUND('',#286,.F.);
#289=ORIENTED_EDGE('',*,*,#288,.T.);
#291=ORIENTED_EDGE('',*,*,#290,.T.);
#292=EDGE_LOOP('',(#289,#291));
#293=FACE_BOUND('',#292,.F.);
#294=ADVANCED_FACE('',(#287,#293),#281,.F.);
#295=CARTESIAN_POINT('',(0.E0,-1.0625E-1,0.E0));
#296=DIRECTION('',(0.E0,1.E0,0.E0));
#297=DIRECTION('',(-9.999806919594E-1,0.E0,6.214153873567E-3));
#298=AXIS2_PLACEMENT_3D('',#295,#296,#297);
#299=TOROIDAL_SURFACE('',#298,9.7E-1,5.E-2);
#300=ORIENTED_EDGE('',*,*,#282,.T.);
#302=ORIENTED_EDGE('',*,*,#301,.T.);
#304=ORIENTED_EDGE('',*,*,#303,.F.);
#306=ORIENTED_EDGE('',*,*,#305,.F.);
#307=EDGE_LOOP('',(#300,#302,#304,#306));
#308=FACE_OUTER_BOUND('',#307,.F.);
#309=ADVANCED_FACE('',(#308),#299,.T.);
#310=CARTESIAN_POINT('',(0.E0,-1.0625E-1,0.E0));
#311=DIRECTION('',(0.E0,1.E0,0.E0));
#312=DIRECTION('',(9.999806919594E-1,0.E0,-6.214153873565E-3));
#313=AXIS2_PLACEMENT_3D('',#310,#311,#312);
#314=TOROIDAL_SURFACE('',#313,9.7E-1,5.E-2);
#315=ORIENTED_EDGE('',*,*,#284,.T.);
#316=ORIENTED_EDGE('',*,*,#305,.T.);
#318=ORIENTED_EDGE('',*,*,#317,.F.);
#319=ORIENTED_EDGE('',*,*,#301,.F.);
#320=EDGE_LOOP('',(#315,#316,#318,#319));
#321=FACE_OUTER_BOUND('',#320,.F.);
#322=ADVANCED_FACE('',(#321),#314,.T.);
#323=CARTESIAN_POINT('',(0.E0,-1.5625E-1,0.E0));
#324=DIRECTION('',(0.E0,1.E0,0.E0));
#325=DIRECTION('',(1.E0,0.E0,0.E0));
#326=AXIS2_PLACEMENT_3D('',#323,#324,#325);
#327=CYLINDRICAL_SURFACE('',#326,1.02E0);
#329=ORIENTED_EDGE('',*,*,#328,.T.);
#331=ORIENTED_EDGE('',*,*,#330,.F.);
#332=ORIENTED_EDGE('',*,*,#317,.T.);
#334=ORIENTED_EDGE('',*,*,#333,.T.);
#335=EDGE_LOOP('',(#329,#331,#332,#334));
#336=FACE_OUTER_BOUND('',#335,.F.);
#337=ADVANCED_FACE('',(#336),#327,.T.);
#338=CARTESIAN_POINT('',(0.E0,1.0625E-1,0.E0));
#339=DIRECTION('',(0.E0,1.E0,0.E0));
#340=DIRECTION('',(-9.999904319726E-1,0.E0,-4.374467190272E-3));
#341=AXIS2_PLACEMENT_3D('',#338,#339,#340);
#342=TOROIDAL_SURFACE('',#341,9.7E-1,5.E-2);
#344=ORIENTED_EDGE('',*,*,#343,.T.);
#346=ORIENTED_EDGE('',*,*,#345,.T.);
#347=ORIENTED_EDGE('',*,*,#328,.F.);
#349=ORIENTED_EDGE('',*,*,#348,.F.);
#350=EDGE_LOOP('',(#344,#346,#347,#349));
#351=FACE_OUTER_BOUND('',#350,.F.);
#352=ADVANCED_FACE('',(#351),#342,.T.);
#353=CARTESIAN_POINT('',(0.E0,1.5625E-1,0.E0));
#354=DIRECTION('',(0.E0,1.E0,0.E0));
#355=DIRECTION('',(1.E0,0.E0,0.E0));
#356=AXIS2_PLACEMENT_3D('',#353,#354,#355);
#357=PLANE('',#356);
#358=ORIENTED_EDGE('',*,*,#343,.F.);
#360=ORIENTED_EDGE('',*,*,#359,.F.);
#361=EDGE_LOOP('',(#358,#360));
#362=FACE_OUTER_BOUND('',#361,.F.);
#364=ORIENTED_EDGE('',*,*,#363,.F.);
#366=ORIENTED_EDGE('',*,*,#365,.F.);
#367=EDGE_LOOP('',(#364,#366));
#368=FACE_BOUND('',#367,.F.);
#369=ADVANCED_FACE('',(#362,#368),#357,.T.);
#370=CARTESIAN_POINT('',(0.E0,1.0625E-1,0.E0));
#371=DIRECTION('',(0.E0,1.E0,0.E0));
#372=DIRECTION('',(9.999904319726E-1,0.E0,4.374467190272E-3));
#373=AXIS2_PLACEMENT_3D('',#370,#371,#372);
#374=TOROIDAL_SURFACE('',#373,9.7E-1,5.E-2);
#375=ORIENTED_EDGE('',*,*,#359,.T.);
#376=ORIENTED_EDGE('',*,*,#348,.T.);
#378=ORIENTED_EDGE('',*,*,#377,.F.);
#379=ORIENTED_EDGE('',*,*,#345,.F.);
#380=EDGE_LOOP('',(#375,#376,#378,#379));
#381=FACE_OUTER_BOUND('',#380,.F.);
#382=ADVANCED_FACE('',(#381),#374,.T.);
#383=CARTESIAN_POINT('',(0.E0,-1.5625E-1,0.E0));
#384=DIRECTION('',(0.E0,1.E0,0.E0));
#385=DIRECTION('',(1.E0,0.E0,0.E0));
#386=AXIS2_PLACEMENT_3D('',#383,#384,#385);
#387=CYLINDRICAL_SURFACE('',#386,1.02E0);
#388=ORIENTED_EDGE('',*,*,#377,.T.);
#389=ORIENTED_EDGE('',*,*,#333,.F.);
#390=ORIENTED_EDGE('',*,*,#303,.T.);
#391=ORIENTED_EDGE('',*,*,#330,.T.);
#392=EDGE_LOOP('',(#388,#389,#390,#391));
#393=FACE_OUTER_BOUND('',#392,.F.);
#394=ADVANCED_FACE('',(#393),#387,.T.);
#395=CARTESIAN_POINT('',(0.E0,1.5625E-1,0.E0));
#396=DIRECTION('',(0.E0,-1.E0,0.E0));
#397=DIRECTION('',(1.E0,0.E0,0.E0));
#398=AXIS2_PLACEMENT_3D('',#395,#396,#397);
#399=CYLINDRICAL_SURFACE('',#398,1.E-1);
#401=ORIENTED_EDGE('',*,*,#400,.F.);
#403=ORIENTED_EDGE('',*,*,#402,.F.);
#404=ORIENTED_EDGE('',*,*,#363,.T.);
#406=ORIENTED_EDGE('',*,*,#405,.T.);
#407=EDGE_LOOP('',(#401,#403,#404,#406));
#408=FACE_OUTER_BOUND('',#407,.F.);
#409=ADVANCED_FACE('',(#408),#399,.F.);
#410=CARTESIAN_POINT('',(0.E0,1.3175E-1,0.E0));
#411=DIRECTION('',(0.E0,-1.E0,0.E0));
#412=DIRECTION('',(1.E0,0.E0,0.E0));
#413=AXIS2_PLACEMENT_3D('',#410,#411,#412);
#414=PLANE('',#413);
#416=ORIENTED_EDGE('',*,*,#415,.F.);
#418=ORIENTED_EDGE('',*,*,#417,.F.);
#419=EDGE_LOOP('',(#416,#418));
#420=FACE_OUTER_BOUND('',#419,.F.);
#421=ORIENTED_EDGE('',*,*,#400,.T.);
#423=ORIENTED_EDGE('',*,*,#422,.T.);
#424=EDGE_LOOP('',(#421,#423));
#425=FACE_BOUND('',#424,.F.);
#426=ADVANCED_FACE('',(#420,#425),#414,.T.);
#427=CARTESIAN_POINT('',(0.E0,-1.5625E-1,0.E0));
#428=DIRECTION('',(0.E0,-1.E0,0.E0));
#429=DIRECTION('',(1.E0,0.E0,0.E0));
#430=AXIS2_PLACEMENT_3D('',#427,#428,#429);
#431=CYLINDRICAL_SURFACE('',#430,8.25E-1);
#433=ORIENTED_EDGE('',*,*,#432,.T.);
#435=ORIENTED_EDGE('',*,*,#434,.F.);
#436=ORIENTED_EDGE('',*,*,#288,.F.);
#438=ORIENTED_EDGE('',*,*,#437,.T.);
#439=EDGE_LOOP('',(#433,#435,#436,#438));
#440=FACE_OUTER_BOUND('',#439,.F.);
#441=ADVANCED_FACE('',(#440),#431,.F.);
#442=CARTESIAN_POINT('',(0.E0,-1.5625E-1,0.E0));
#443=DIRECTION('',(0.E0,-1.E0,0.E0));
#444=DIRECTION('',(1.E0,0.E0,0.E0));
#445=AXIS2_PLACEMENT_3D('',#442,#443,#444);
#446=CYLINDRICAL_SURFACE('',#445,8.25E-1);
#448=ORIENTED_EDGE('',*,*,#447,.F.);
#450=ORIENTED_EDGE('',*,*,#449,.T.);
#451=ORIENTED_EDGE('',*,*,#415,.T.);
#453=ORIENTED_EDGE('',*,*,#452,.F.);
#454=EDGE_LOOP('',(#448,#450,#451,#453));
#455=FACE_OUTER_BOUND('',#454,.F.);
#456=ADVANCED_FACE('',(#455),#446,.F.);
#457=CARTESIAN_POINT('',(0.E0,-1.3125E-1,0.E0));
#458=DIRECTION('',(0.E0,1.E0,0.E0));
#459=DIRECTION('',(1.E0,0.E0,0.E0));
#460=AXIS2_PLACEMENT_3D('',#457,#458,#459);
#461=PLANE('',#460);
#463=ORIENTED_EDGE('',*,*,#462,.T.);
#465=ORIENTED_EDGE('',*,*,#464,.T.);
#466=EDGE_LOOP('',(#463,#465));
#467=FACE_OUTER_BOUND('',#466,.F.);
#468=ORIENTED_EDGE('',*,*,#432,.F.);
#470=ORIENTED_EDGE('',*,*,#469,.F.);
#471=EDGE_LOOP('',(#468,#470));
#472=FACE_BOUND('',#471,.F.);
#473=ADVANCED_FACE('',(#467,#472),#461,.T.);
#474=CARTESIAN_POINT('',(0.E0,-1.0625E-1,0.E0));
#475=DIRECTION('',(0.E0,1.E0,0.E0));
#476=DIRECTION('',(-9.999806919594E-1,0.E0,6.214153873567E-3));
#477=AXIS2_PLACEMENT_3D('',#474,#475,#476);
#478=TOROIDAL_SURFACE('',#477,9.7E-1,2.5E-2);
#479=ORIENTED_EDGE('',*,*,#462,.F.);
#481=ORIENTED_EDGE('',*,*,#480,.T.);
#483=ORIENTED_EDGE('',*,*,#482,.T.);
#485=ORIENTED_EDGE('',*,*,#484,.F.);
#486=EDGE_LOOP('',(#479,#481,#483,#485));
#487=FACE_OUTER_BOUND('',#486,.F.);
#488=ADVANCED_FACE('',(#487),#478,.F.);
#489=CARTESIAN_POINT('',(0.E0,-1.0625E-1,0.E0));
#490=DIRECTION('',(0.E0,1.E0,0.E0));
#491=DIRECTION('',(9.999806919594E-1,0.E0,-6.214153873565E-3));
#492=AXIS2_PLACEMENT_3D('',#489,#490,#491);
#493=TOROIDAL_SURFACE('',#492,9.7E-1,2.5E-2);
#494=ORIENTED_EDGE('',*,*,#464,.F.);
#495=ORIENTED_EDGE('',*,*,#484,.T.);
#497=ORIENTED_EDGE('',*,*,#496,.T.);
#498=ORIENTED_EDGE('',*,*,#480,.F.);
#499=EDGE_LOOP('',(#494,#495,#497,#498));
#500=FACE_OUTER_BOUND('',#499,.F.);
#501=ADVANCED_FACE('',(#500),#493,.F.);
#502=CARTESIAN_POINT('',(0.E0,-1.5625E-1,0.E0));
#503=DIRECTION('',(0.E0,1.E0,0.E0));
#504=DIRECTION('',(1.E0,0.E0,0.E0));
#505=AXIS2_PLACEMENT_3D('',#502,#503,#504);
#506=CYLINDRICAL_SURFACE('',#505,9.95E-1);
#508=ORIENTED_EDGE('',*,*,#507,.F.);
#510=ORIENTED_EDGE('',*,*,#509,.F.);
#511=ORIENTED_EDGE('',*,*,#496,.F.);
#513=ORIENTED_EDGE('',*,*,#512,.T.);
#514=EDGE_LOOP('',(#508,#510,#511,#513));
#515=FACE_OUTER_BOUND('',#514,.F.);
#516=ADVANCED_FACE('',(#515),#506,.F.);
#517=CARTESIAN_POINT('',(0.E0,1.0625E-1,0.E0));
#518=DIRECTION('',(0.E0,1.E0,0.E0));
#519=DIRECTION('',(-9.999904319726E-1,0.E0,-4.374467190272E-3));
#520=AXIS2_PLACEMENT_3D('',#517,#518,#519);
#521=TOROIDAL_SURFACE('',#520,9.7E-1,2.5E-2);
#523=ORIENTED_EDGE('',*,*,#522,.F.);
#525=ORIENTED_EDGE('',*,*,#524,.T.);
#526=ORIENTED_EDGE('',*,*,#507,.T.);
#528=ORIENTED_EDGE('',*,*,#527,.F.);
#529=EDGE_LOOP('',(#523,#525,#526,#528));
#530=FACE_OUTER_BOUND('',#529,.F.);
#531=ADVANCED_FACE('',(#530),#521,.F.);
#532=CARTESIAN_POINT('',(0.E0,1.3125E-1,0.E0));
#533=DIRECTION('',(0.E0,1.E0,0.E0));
#534=DIRECTION('',(1.E0,0.E0,0.E0));
#535=AXIS2_PLACEMENT_3D('',#532,#533,#534);
#536=PLANE('',#535);
#537=ORIENTED_EDGE('',*,*,#522,.T.);
#539=ORIENTED_EDGE('',*,*,#538,.T.);
#540=EDGE_LOOP('',(#537,#539));
#541=FACE_OUTER_BOUND('',#540,.F.);
#542=ORIENTED_EDGE('',*,*,#447,.T.);
#544=ORIENTED_EDGE('',*,*,#543,.T.);
#545=EDGE_LOOP('',(#542,#544));
#546=FACE_BOUND('',#545,.F.);
#547=ADVANCED_FACE('',(#541,#546),#536,.F.);
#548=CARTESIAN_POINT('',(0.E0,1.0625E-1,0.E0));
#549=DIRECTION('',(0.E0,1.E0,0.E0));
#550=DIRECTION('',(9.999904319726E-1,0.E0,4.374467190272E-3));
#551=AXIS2_PLACEMENT_3D('',#548,#549,#550);
#552=TOROIDAL_SURFACE('',#551,9.7E-1,2.5E-2);
#553=ORIENTED_EDGE('',*,*,#538,.F.);
#554=ORIENTED_EDGE('',*,*,#527,.T.);
#556=ORIENTED_EDGE('',*,*,#555,.T.);
#557=ORIENTED_EDGE('',*,*,#524,.F.);
#558=EDGE_LOOP('',(#553,#554,#556,#557));
#559=FACE_OUTER_BOUND('',#558,.F.);
#560=ADVANCED_FACE('',(#559),#552,.F.);
#561=CARTESIAN_POINT('',(0.E0,-1.5625E-1,0.E0));
#562=DIRECTION('',(0.E0,1.E0,0.E0));
#563=DIRECTION('',(1.E0,0.E0,0.E0));
#564=AXIS2_PLACEMENT_3D('',#561,#562,#563);
#565=CYLINDRICAL_SURFACE('',#564,9.95E-1);
#566=ORIENTED_EDGE('',*,*,#555,.F.);
#567=ORIENTED_EDGE('',*,*,#512,.F.);
#568=ORIENTED_EDGE('',*,*,#482,.F.);
#569=ORIENTED_EDGE('',*,*,#509,.T.);
#570=EDGE_LOOP('',(#566,#567,#568,#569));
#571=FACE_OUTER_BOUND('',#570,.F.);
#572=ADVANCED_FACE('',(#571),#565,.F.);
#573=CARTESIAN_POINT('',(0.E0,-1.5625E-1,0.E0));
#574=DIRECTION('',(0.E0,-1.E0,0.E0));
#575=DIRECTION('',(1.E0,0.E0,0.E0));
#576=AXIS2_PLACEMENT_3D('',#573,#574,#575);
#577=CYLINDRICAL_SURFACE('',#576,8.25E-1);
#578=ORIENTED_EDGE('',*,*,#469,.T.);
#579=ORIENTED_EDGE('',*,*,#437,.F.);
#580=ORIENTED_EDGE('',*,*,#290,.F.);
#581=ORIENTED_EDGE('',*,*,#434,.T.);
#582=EDGE_LOOP('',(#578,#579,#580,#581));
#583=FACE_OUTER_BOUND('',#582,.F.);
#584=ADVANCED_FACE('',(#583),#577,.F.);
#585=CARTESIAN_POINT('',(0.E0,-1.5625E-1,0.E0));
#586=DIRECTION('',(0.E0,-1.E0,0.E0));
#587=DIRECTION('',(1.E0,0.E0,0.E0));
#588=AXIS2_PLACEMENT_3D('',#585,#586,#587);
#589=CYLINDRICAL_SURFACE('',#588,8.25E-1);
#590=ORIENTED_EDGE('',*,*,#543,.F.);
#591=ORIENTED_EDGE('',*,*,#452,.T.);
#592=ORIENTED_EDGE('',*,*,#417,.T.);
#593=ORIENTED_EDGE('',*,*,#449,.F.);
#594=EDGE_LOOP('',(#590,#591,#592,#593));
#595=FACE_OUTER_BOUND('',#594,.F.);
#596=ADVANCED_FACE('',(#595),#589,.F.);
#597=CARTESIAN_POINT('',(0.E0,1.5625E-1,0.E0));
#598=DIRECTION('',(0.E0,-1.E0,0.E0));
#599=DIRECTION('',(1.E0,0.E0,0.E0));
#600=AXIS2_PLACEMENT_3D('',#597,#598,#599);
#601=CYLINDRICAL_SURFACE('',#600,1.E-1);
#602=ORIENTED_EDGE('',*,*,#422,.F.);
#603=ORIENTED_EDGE('',*,*,#405,.F.);
#604=ORIENTED_EDGE('',*,*,#365,.T.);
#605=ORIENTED_EDGE('',*,*,#402,.T.);
#606=EDGE_LOOP('',(#602,#603,#604,#605));
#607=FACE_OUTER_BOUND('',#606,.F.);
#608=ADVANCED_FACE('',(#607),#601,.F.);
#609=CLOSED_SHELL('',(#294,#309,#322,#337,#352,#369,#382,#394,#409,#426,#441,
#456,#473,#488,#501,#516,#531,#547,#560,#572,#584,#596,#608));
#610=MANIFOLD_SOLID_BREP('',#609);
#611=DIMENSIONAL_EXPONENTS(1.E0,0.E0,0.E0,0.E0,0.E0,0.E0,0.E0);
#613=LENGTH_MEASURE_WITH_UNIT(LENGTH_MEASURE(2.54E1),#612);
#614=(CONVERSION_BASED_UNIT('INCH',#613)LENGTH_UNIT()NAMED_UNIT(#611));
#615=DIMENSIONAL_EXPONENTS(0.E0,0.E0,0.E0,0.E0,0.E0,0.E0,0.E0);
#617=PLANE_ANGLE_MEASURE_WITH_UNIT(PLANE_ANGLE_MEASURE(1.745329251994E-2),#616);
#618=(CONVERSION_BASED_UNIT('DEGREE',#617)NAMED_UNIT(*)PLANE_ANGLE_UNIT());
#620=UNCERTAINTY_MEASURE_WITH_UNIT(LENGTH_MEASURE(2.901755088731E-4),#614,
'closure',
'Maximum model space distance between geometric entities at asserted connectivities');
#621=(GEOMETRIC_REPRESENTATION_CONTEXT(3)GLOBAL_UNCERTAINTY_ASSIGNED_CONTEXT((
#620))GLOBAL_UNIT_ASSIGNED_CONTEXT((#614,#618,#619))REPRESENTATION_CONTEXT
('ID1','3'));
#622=CARTESIAN_POINT('',(0.E0,0.E0,0.E0));
#623=DIRECTION('',(0.E0,0.E0,1.E0));
#624=DIRECTION('',(1.E0,0.E0,0.E0));
#627=APPLICATION_CONTEXT(
'CONFIGURATION CONTROLLED 3D DESIGNS OF MECHANICAL PARTS AND ASSEMBLIES');
#628=APPLICATION_PROTOCOL_DEFINITION('international standard',
'config_control_design',1994,#627);
#629=DESIGN_CONTEXT('',#627,'design');
#630=MECHANICAL_CONTEXT('',#627,'mechanical');
#631=PRODUCT('160557','160557','NOT SPECIFIED',(#630));
#632=PRODUCT_DEFINITION_FORMATION_WITH_SPECIFIED_SOURCE('1','LAST_VERSION',#631,
.MADE.);
#641=CARTESIAN_POINT('',(0.E0,0.E0,0.E0));
#642=DIRECTION('',(0.E0,0.E0,1.E0));
#643=DIRECTION('',(1.E0,0.E0,0.E0));
#644=AXIS2_PLACEMENT_3D('',#641,#642,#643);
#645=ITEM_DEFINED_TRANSFORMATION('','',#625,#644);
#646=(REPRESENTATION_RELATIONSHIP('','',#626,#638)REPRESENTATION_RELATIONSHIP_WITH_TRANSFORMATION(#645)SHAPE_REPRESENTATION_RELATIONSHIP());
#647=CONTEXT_DEPENDENT_SHAPE_REPRESENTATION(#646,#640);
#649=DIMENSIONAL_EXPONENTS(0.E0,0.E0,0.E0,0.E0,0.E0,0.E0,0.E0);
#651=PLANE_ANGLE_MEASURE_WITH_UNIT(PLANE_ANGLE_MEASURE(1.745329251994E-2),#650);
#652=(CONVERSION_BASED_UNIT('DEGREE',#651)NAMED_UNIT(*)PLANE_ANGLE_UNIT());
#654=UNCERTAINTY_MEASURE_WITH_UNIT(LENGTH_MEASURE(7.370457925375E-3),#648,
'closure',
'Maximum model space distance between geometric entities at asserted connectivities');
#655=(GEOMETRIC_REPRESENTATION_CONTEXT(3)GLOBAL_UNCERTAINTY_ASSIGNED_CONTEXT((
#654))GLOBAL_UNIT_ASSIGNED_CONTEXT((#648,#652,#653))REPRESENTATION_CONTEXT
('ID2','3'));
#656=CARTESIAN_POINT('',(0.E0,0.E0,0.E0));
#657=DIRECTION('',(0.E0,0.E0,1.E0));
#658=DIRECTION('',(1.E0,0.E0,0.E0));
#660=MECHANICAL_CONTEXT('',#627,'mechanical');
#661=PRODUCT('190842_ASM','190842_ASM','NOT SPECIFIED',(#660));
#662=PRODUCT_DEFINITION_FORMATION_WITH_SPECIFIED_SOURCE('1','LAST_VERSION',#661,
.MADE.);
#664=PRODUCT_CATEGORY('part','');
#665=PRODUCT_RELATED_PRODUCT_CATEGORY('assembly','',(#661));
#666=PRODUCT_CATEGORY_RELATIONSHIP('','',#664,#665);
#667=PRODUCT_CATEGORY('part','');
#668=PRODUCT_RELATED_PRODUCT_CATEGORY('detail','',(#631));
#669=PRODUCT_CATEGORY_RELATIONSHIP('','',#667,#668);
#670=SECURITY_CLASSIFICATION_LEVEL('unclassified');
#671=SECURITY_CLASSIFICATION('','',#670);
#672=CC_DESIGN_SECURITY_CLASSIFICATION(#671,(#632,#662,#639));
#673=APPROVAL_STATUS('approved');
#674=APPROVAL(#673,'');
#675=CC_DESIGN_APPROVAL(#674,(#671,#632,#662,#633,#663));
#676=CALENDAR_DATE(116,11,1);
#677=COORDINATED_UNIVERSAL_TIME_OFFSET(6,0,.BEHIND.);
#678=LOCAL_TIME(12,38,2.3E1,#677);
#679=DATE_AND_TIME(#676,#678);
#680=APPROVAL_DATE_TIME(#679,#674);
#681=DATE_TIME_ROLE('creation_date');
#682=CC_DESIGN_DATE_AND_TIME_ASSIGNMENT(#679,#681,(#633,#663));
#683=DATE_TIME_ROLE('classification_date');
#684=CC_DESIGN_DATE_AND_TIME_ASSIGNMENT(#679,#683,(#671));
#685=PERSON('UNSPECIFIED','UNSPECIFIED',$,$,$,$);
#686=ORGANIZATION('UNSPECIFIED','UNSPECIFIED','UNSPECIFIED');
#687=PERSON_AND_ORGANIZATION(#685,#686);
#688=APPROVAL_ROLE('approver');
#689=APPROVAL_PERSON_ORGANIZATION(#687,#674,#688);
#690=PERSON_AND_ORGANIZATION_ROLE('creator');
#691=CC_DESIGN_PERSON_AND_ORGANIZATION_ASSIGNMENT(#687,#690,(#632,#662,#633,
#663));
#692=PERSON_AND_ORGANIZATION_ROLE('design_supplier');
#693=CC_DESIGN_PERSON_AND_ORGANIZATION_ASSIGNMENT(#687,#692,(#632,#662));
#694=PERSON_AND_ORGANIZATION_ROLE('classification_officer');
#695=CC_DESIGN_PERSON_AND_ORGANIZATION_ASSIGNMENT(#687,#694,(#671));
#696=PERSON_AND_ORGANIZATION_ROLE('design_owner');
#697=CC_DESIGN_PERSON_AND_ORGANIZATION_ASSIGNMENT(#687,#696,(#661,#631));
#5=CIRCLE('',#4,9.7E-1);
#10=CIRCLE('',#9,9.7E-1);
#15=CIRCLE('',#14,8.25E-1);
#20=CIRCLE('',#19,8.25E-1);
#25=CIRCLE('',#24,5.E-2);
#30=CIRCLE('',#29,5.E-2);
#35=CIRCLE('',#34,1.02E0);
#40=CIRCLE('',#39,1.02E0);
#49=CIRCLE('',#48,5.E-2);
#54=CIRCLE('',#53,9.7E-1);
#59=CIRCLE('',#58,9.7E-1);
#64=CIRCLE('',#63,1.E-1);
#69=CIRCLE('',#68,1.E-1);
#74=CIRCLE('',#73,5.E-2);
#79=CIRCLE('',#78,1.02E0);
#84=CIRCLE('',#83,1.02E0);
#97=CIRCLE('',#96,1.E-1);
#102=CIRCLE('',#101,1.E-1);
#107=CIRCLE('',#106,8.25E-1);
#116=CIRCLE('',#115,8.25E-1);
#125=CIRCLE('',#124,8.25E-1);
#130=CIRCLE('',#129,9.7E-1);
#135=CIRCLE('',#134,9.7E-1);
#140=CIRCLE('',#139,2.5E-2);
#145=CIRCLE('',#144,2.5E-2);
#150=CIRCLE('',#149,9.95E-1);
#159=CIRCLE('',#158,9.95E-1);
#164=CIRCLE('',#163,2.5E-2);
#169=CIRCLE('',#168,9.7E-1);
#174=CIRCLE('',#173,9.7E-1);
#179=CIRCLE('',#178,2.5E-2);
#184=CIRCLE('',#183,9.95E-1);
#193=CIRCLE('',#192,9.95E-1);
#198=CIRCLE('',#197,8.25E-1);
#207=CIRCLE('',#206,8.25E-1);
#216=CIRCLE('',#215,8.25E-1);
#282=EDGE_CURVE('',#231,#232,#5,.T.);
#284=EDGE_CURVE('',#232,#231,#10,.T.);
#288=EDGE_CURVE('',#239,#240,#15,.T.);
#290=EDGE_CURVE('',#240,#239,#20,.T.);
#301=EDGE_CURVE('',#232,#236,#30,.T.);
#303=EDGE_CURVE('',#235,#236,#84,.T.);
#305=EDGE_CURVE('',#231,#235,#25,.T.);
#317=EDGE_CURVE('',#236,#235,#40,.T.);
#328=EDGE_CURVE('',#227,#228,#35,.T.);
#330=EDGE_CURVE('',#236,#228,#88,.T.);
#333=EDGE_CURVE('',#235,#227,#44,.T.);
#343=EDGE_CURVE('',#223,#224,#54,.T.);
#345=EDGE_CURVE('',#224,#228,#74,.T.);
#348=EDGE_CURVE('',#223,#227,#49,.T.);
#359=EDGE_CURVE('',#224,#223,#59,.T.);
#363=EDGE_CURVE('',#271,#272,#64,.T.);
#365=EDGE_CURVE('',#272,#271,#69,.T.);
#377=EDGE_CURVE('',#228,#227,#79,.T.);
#400=EDGE_CURVE('',#267,#268,#97,.T.);
#402=EDGE_CURVE('',#271,#267,#92,.T.);
#405=EDGE_CURVE('',#272,#268,#220,.T.);
#415=EDGE_CURVE('',#243,#244,#125,.T.);
#417=EDGE_CURVE('',#244,#243,#216,.T.);
#422=EDGE_CURVE('',#268,#267,#102,.T.);
#432=EDGE_CURVE('',#263,#264,#107,.T.);
#434=EDGE_CURVE('',#240,#264,#202,.T.);
#437=EDGE_CURVE('',#239,#263,#111,.T.);
#447=EDGE_CURVE('',#275,#276,#116,.T.);
#449=EDGE_CURVE('',#275,#243,#120,.T.);
#452=EDGE_CURVE('',#276,#244,#211,.T.);
#462=EDGE_CURVE('',#255,#256,#130,.T.);
#464=EDGE_CURVE('',#256,#255,#135,.T.);
#469=EDGE_CURVE('',#264,#263,#198,.T.);
#480=EDGE_CURVE('',#255,#259,#140,.T.);
#482=EDGE_CURVE('',#259,#260,#193,.T.);
#484=EDGE_CURVE('',#256,#260,#145,.T.);
#496=EDGE_CURVE('',#260,#259,#159,.T.);
#507=EDGE_CURVE('',#251,#252,#150,.T.);
#509=EDGE_CURVE('',#259,#251,#154,.T.);
#512=EDGE_CURVE('',#260,#252,#188,.T.);
#522=EDGE_CURVE('',#247,#248,#169,.T.);
#524=EDGE_CURVE('',#247,#251,#164,.T.);
#527=EDGE_CURVE('',#248,#252,#179,.T.);
#538=EDGE_CURVE('',#248,#247,#174,.T.);
#543=EDGE_CURVE('',#276,#275,#207,.T.);
#555=EDGE_CURVE('',#252,#251,#184,.T.);
#612=(LENGTH_UNIT()NAMED_UNIT(*)SI_UNIT(.MILLI.,.METRE.));
#616=(NAMED_UNIT(*)PLANE_ANGLE_UNIT()SI_UNIT($,.RADIAN.));
#619=(NAMED_UNIT(*)SI_UNIT($,.STERADIAN.)SOLID_ANGLE_UNIT());
#625=AXIS2_PLACEMENT_3D('',#622,#623,#624);
#626=ADVANCED_BREP_SHAPE_REPRESENTATION('',(#625,#610),#621);
#633=PRODUCT_DEFINITION('design','',#632,#629);
#634=PRODUCT_DEFINITION_SHAPE('','SHAPE FOR 160557.',#633);
#635=SHAPE_DEFINITION_REPRESENTATION(#634,#626);
#636=SHAPE_DEFINITION_REPRESENTATION(#637,#638);
#637=PRODUCT_DEFINITION_SHAPE('','SHAPE FOR 190842_ASM.',#663);
#638=SHAPE_REPRESENTATION('',(#644,#659),#655);
#639=NEXT_ASSEMBLY_USAGE_OCCURRENCE('0','Next assembly relationship','160557',
#663,#633,$);
#640=PRODUCT_DEFINITION_SHAPE('Placement #0',
'Placement of 160557 with respect to 190842_ASM',#639);
#648=(LENGTH_UNIT()NAMED_UNIT(*)SI_UNIT(.MILLI.,.METRE.));
#650=(NAMED_UNIT(*)PLANE_ANGLE_UNIT()SI_UNIT($,.RADIAN.));
#653=(NAMED_UNIT(*)SI_UNIT($,.STERADIAN.)SOLID_ANGLE_UNIT());
#659=AXIS2_PLACEMENT_3D('',#656,#657,#658);
#663=PRODUCT_DEFINITION('design','',#662,#629);
ENDSEC;
END-ISO-10303-21;
