ISO-10303-21;
HEADER;
FILE_DESCRIPTION((''),'2;1');
FILE_NAME('167088_ASM','2012-08-23T',('banengservice'),('BANNER ENGINEERING'),
'PRO/ENGINEER BY PARAMETRIC TECHNOLOGY CORPORATION, 2009141',
'PRO/ENGINEER BY PARAMETRIC TECHNOLOGY CORPORATION, 2009141','');
FILE_SCHEMA(('CONFIG_CONTROL_DESIGN'));
ENDSEC;
DATA;
#2=CARTESIAN_POINT('',(0.E0,0.E0,0.E0));
#3=DIRECTION('',(0.E0,1.E0,0.E0));
#4=DIRECTION('',(-1.E0,0.E0,0.E0));
#5=AXIS2_PLACEMENT_3D('',#2,#3,#4);
#7=CARTESIAN_POINT('',(0.E0,0.E0,0.E0));
#8=DIRECTION('',(0.E0,1.E0,0.E0));
#9=DIRECTION('',(1.E0,0.E0,0.E0));
#10=AXIS2_PLACEMENT_3D('',#7,#8,#9);
#12=DIRECTION('',(0.E0,0.E0,-1.E0));
#13=VECTOR('',#12,4.E1);
#14=CARTESIAN_POINT('',(2.6E1,0.E0,-3.2E1));
#15=LINE('',#14,#13);
#16=DIRECTION('',(-1.E0,0.E0,0.E0));
#17=VECTOR('',#16,1.36E2);
#18=CARTESIAN_POINT('',(1.68E2,0.E0,-2.6E1));
#19=LINE('',#18,#17);
#20=CARTESIAN_POINT('',(1.68E2,0.E0,-2.E1));
#21=DIRECTION('',(0.E0,1.E0,0.E0));
#22=DIRECTION('',(1.E0,0.E0,0.E0));
#23=AXIS2_PLACEMENT_3D('',#20,#21,#22);
#25=DIRECTION('',(0.E0,0.E0,-1.E0));
#26=VECTOR('',#25,4.E1);
#27=CARTESIAN_POINT('',(1.74E2,0.E0,2.E1));
#28=LINE('',#27,#26);
#29=CARTESIAN_POINT('',(1.68E2,0.E0,2.E1));
#30=DIRECTION('',(0.E0,1.E0,0.E0));
#31=DIRECTION('',(0.E0,0.E0,1.E0));
#32=AXIS2_PLACEMENT_3D('',#29,#30,#31);
#34=DIRECTION('',(1.E0,0.E0,0.E0));
#35=VECTOR('',#34,1.88E2);
#36=CARTESIAN_POINT('',(-2.E1,0.E0,2.6E1));
#37=LINE('',#36,#35);
#38=CARTESIAN_POINT('',(-2.E1,0.E0,2.E1));
#39=DIRECTION('',(0.E0,1.E0,0.E0));
#40=DIRECTION('',(-1.E0,0.E0,0.E0));
#41=AXIS2_PLACEMENT_3D('',#38,#39,#40);
#43=DIRECTION('',(0.E0,0.E0,1.E0));
#44=VECTOR('',#43,9.2E1);
#45=CARTESIAN_POINT('',(-2.6E1,0.E0,-7.2E1));
#46=LINE('',#45,#44);
#47=CARTESIAN_POINT('',(-2.E1,0.E0,-7.2E1));
#48=DIRECTION('',(0.E0,1.E0,0.E0));
#49=DIRECTION('',(0.E0,0.E0,-1.E0));
#50=AXIS2_PLACEMENT_3D('',#47,#48,#49);
#52=DIRECTION('',(-1.E0,0.E0,0.E0));
#53=VECTOR('',#52,4.E1);
#54=CARTESIAN_POINT('',(2.E1,0.E0,-7.8E1));
#55=LINE('',#54,#53);
#56=CARTESIAN_POINT('',(2.E1,0.E0,-7.2E1));
#57=DIRECTION('',(0.E0,1.E0,0.E0));
#58=DIRECTION('',(1.E0,0.E0,0.E0));
#59=AXIS2_PLACEMENT_3D('',#56,#57,#58);
#61=CARTESIAN_POINT('',(1.59E2,0.E0,0.E0));
#62=DIRECTION('',(0.E0,1.E0,0.E0));
#63=DIRECTION('',(0.E0,0.E0,1.E0));
#64=AXIS2_PLACEMENT_3D('',#61,#62,#63);
#66=DIRECTION('',(1.E0,0.E0,0.E0));
#67=VECTOR('',#66,1.27E2);
#68=CARTESIAN_POINT('',(3.2E1,0.E0,-4.15E0));
#69=LINE('',#68,#67);
#70=CARTESIAN_POINT('',(3.2E1,0.E0,0.E0));
#71=DIRECTION('',(0.E0,1.E0,0.E0));
#72=DIRECTION('',(0.E0,0.E0,-1.E0));
#73=AXIS2_PLACEMENT_3D('',#70,#71,#72);
#75=DIRECTION('',(-1.E0,0.E0,0.E0));
#76=VECTOR('',#75,1.27E2);
#77=CARTESIAN_POINT('',(1.59E2,0.E0,4.15E0));
#78=LINE('',#77,#76);
#79=DIRECTION('',(0.E0,-1.E0,0.E0));
#80=VECTOR('',#79,2.6E0);
#81=CARTESIAN_POINT('',(-1.55E1,0.E0,0.E0));
#82=LINE('',#81,#80);
#83=DIRECTION('',(0.E0,-1.E0,0.E0));
#84=VECTOR('',#83,2.6E0);
#85=CARTESIAN_POINT('',(1.55E1,0.E0,0.E0));
#86=LINE('',#85,#84);
#87=CARTESIAN_POINT('',(0.E0,-2.6E0,0.E0));
#88=DIRECTION('',(0.E0,1.E0,0.E0));
#89=DIRECTION('',(-1.E0,0.E0,0.E0));
#90=AXIS2_PLACEMENT_3D('',#87,#88,#89);
#92=CARTESIAN_POINT('',(0.E0,-2.6E0,0.E0));
#93=DIRECTION('',(0.E0,1.E0,0.E0));
#94=DIRECTION('',(1.E0,0.E0,0.E0));
#95=AXIS2_PLACEMENT_3D('',#92,#93,#94);
#97=DIRECTION('',(-1.E0,0.E0,0.E0));
#98=VECTOR('',#97,1.36E2);
#99=CARTESIAN_POINT('',(1.68E2,-2.6E0,-2.6E1));
#100=LINE('',#99,#98);
#101=DIRECTION('',(0.E0,0.E0,-1.E0));
#102=VECTOR('',#101,4.E1);
#103=CARTESIAN_POINT('',(2.6E1,-2.6E0,-3.2E1));
#104=LINE('',#103,#102);
#105=CARTESIAN_POINT('',(2.E1,-2.6E0,-7.2E1));
#106=DIRECTION('',(0.E0,-1.E0,0.E0));
#107=DIRECTION('',(0.E0,0.E0,-1.E0));
#108=AXIS2_PLACEMENT_3D('',#105,#106,#107);
#110=DIRECTION('',(-1.E0,0.E0,0.E0));
#111=VECTOR('',#110,4.E1);
#112=CARTESIAN_POINT('',(2.E1,-2.6E0,-7.8E1));
#113=LINE('',#112,#111);
#114=CARTESIAN_POINT('',(-2.E1,-2.6E0,-7.2E1));
#115=DIRECTION('',(0.E0,-1.E0,0.E0));
#116=DIRECTION('',(-1.E0,0.E0,0.E0));
#117=AXIS2_PLACEMENT_3D('',#114,#115,#116);
#119=DIRECTION('',(0.E0,0.E0,1.E0));
#120=VECTOR('',#119,9.2E1);
#121=CARTESIAN_POINT('',(-2.6E1,-2.6E0,-7.2E1));
#122=LINE('',#121,#120);
#123=CARTESIAN_POINT('',(-2.E1,-2.6E0,2.E1));
#124=DIRECTION('',(0.E0,-1.E0,0.E0));
#125=DIRECTION('',(0.E0,0.E0,1.E0));
#126=AXIS2_PLACEMENT_3D('',#123,#124,#125);
#128=DIRECTION('',(1.E0,0.E0,0.E0));
#129=VECTOR('',#128,1.88E2);
#130=CARTESIAN_POINT('',(-2.E1,-2.6E0,2.6E1));
#131=LINE('',#130,#129);
#132=CARTESIAN_POINT('',(1.68E2,-2.6E0,2.E1));
#133=DIRECTION('',(0.E0,-1.E0,0.E0));
#134=DIRECTION('',(1.E0,0.E0,0.E0));
#135=AXIS2_PLACEMENT_3D('',#132,#133,#134);
#137=DIRECTION('',(0.E0,0.E0,-1.E0));
#138=VECTOR('',#137,4.E1);
#139=CARTESIAN_POINT('',(1.74E2,-2.6E0,2.E1));
#140=LINE('',#139,#138);
#141=CARTESIAN_POINT('',(1.68E2,-2.6E0,-2.E1));
#142=DIRECTION('',(0.E0,-1.E0,0.E0));
#143=DIRECTION('',(0.E0,0.E0,-1.E0));
#144=AXIS2_PLACEMENT_3D('',#141,#142,#143);
#146=CARTESIAN_POINT('',(1.59E2,-2.6E0,0.E0));
#147=DIRECTION('',(0.E0,1.E0,0.E0));
#148=DIRECTION('',(0.E0,0.E0,1.E0));
#149=AXIS2_PLACEMENT_3D('',#146,#147,#148);
#151=DIRECTION('',(-1.E0,0.E0,0.E0));
#152=VECTOR('',#151,1.27E2);
#153=CARTESIAN_POINT('',(1.59E2,-2.6E0,4.15E0));
#154=LINE('',#153,#152);
#155=CARTESIAN_POINT('',(3.2E1,-2.6E0,0.E0));
#156=DIRECTION('',(0.E0,1.E0,0.E0));
#157=DIRECTION('',(0.E0,0.E0,-1.E0));
#158=AXIS2_PLACEMENT_3D('',#155,#156,#157);
#160=DIRECTION('',(1.E0,0.E0,0.E0));
#161=VECTOR('',#160,1.27E2);
#162=CARTESIAN_POINT('',(3.2E1,-2.6E0,-4.15E0));
#163=LINE('',#162,#161);
#164=DIRECTION('',(0.E0,-1.E0,0.E0));
#165=VECTOR('',#164,2.6E0);
#166=CARTESIAN_POINT('',(3.2E1,0.E0,-2.6E1));
#167=LINE('',#166,#165);
#168=DIRECTION('',(0.E0,1.E0,0.E0));
#169=VECTOR('',#168,2.6E0);
#170=CARTESIAN_POINT('',(1.68E2,-2.6E0,-2.6E1));
#171=LINE('',#170,#169);
#172=CARTESIAN_POINT('',(3.2E1,0.E0,-3.2E1));
#173=DIRECTION('',(0.E0,-1.E0,0.E0));
#174=DIRECTION('',(0.E0,0.E0,1.E0));
#175=AXIS2_PLACEMENT_3D('',#172,#173,#174);
#177=CARTESIAN_POINT('',(3.2E1,-2.6E0,-3.2E1));
#178=DIRECTION('',(0.E0,1.E0,0.E0));
#179=DIRECTION('',(-1.E0,0.E0,0.E0));
#180=AXIS2_PLACEMENT_3D('',#177,#178,#179);
#182=DIRECTION('',(0.E0,-1.E0,0.E0));
#183=VECTOR('',#182,2.6E0);
#184=CARTESIAN_POINT('',(2.6E1,0.E0,-3.2E1));
#185=LINE('',#184,#183);
#186=DIRECTION('',(0.E0,1.E0,0.E0));
#187=VECTOR('',#186,2.6E0);
#188=CARTESIAN_POINT('',(2.6E1,-2.6E0,-7.2E1));
#189=LINE('',#188,#187);
#190=DIRECTION('',(0.E0,1.E0,0.E0));
#191=VECTOR('',#190,2.6E0);
#192=CARTESIAN_POINT('',(2.E1,-2.6E0,-7.8E1));
#193=LINE('',#192,#191);
#194=DIRECTION('',(0.E0,1.E0,0.E0));
#195=VECTOR('',#194,2.6E0);
#196=CARTESIAN_POINT('',(-2.E1,-2.6E0,-7.8E1));
#197=LINE('',#196,#195);
#198=DIRECTION('',(0.E0,1.E0,0.E0));
#199=VECTOR('',#198,2.6E0);
#200=CARTESIAN_POINT('',(-2.6E1,-2.6E0,-7.2E1));
#201=LINE('',#200,#199);
#202=DIRECTION('',(0.E0,1.E0,0.E0));
#203=VECTOR('',#202,2.6E0);
#204=CARTESIAN_POINT('',(-2.6E1,-2.6E0,2.E1));
#205=LINE('',#204,#203);
#206=DIRECTION('',(0.E0,1.E0,0.E0));
#207=VECTOR('',#206,2.6E0);
#208=CARTESIAN_POINT('',(1.68E2,-2.6E0,2.6E1));
#209=LINE('',#208,#207);
#210=DIRECTION('',(0.E0,1.E0,0.E0));
#211=VECTOR('',#210,2.6E0);
#212=CARTESIAN_POINT('',(-2.E1,-2.6E0,2.6E1));
#213=LINE('',#212,#211);
#214=DIRECTION('',(0.E0,1.E0,0.E0));
#215=VECTOR('',#214,2.6E0);
#216=CARTESIAN_POINT('',(1.74E2,-2.6E0,-2.E1));
#217=LINE('',#216,#215);
#218=DIRECTION('',(0.E0,1.E0,0.E0));
#219=VECTOR('',#218,2.6E0);
#220=CARTESIAN_POINT('',(1.74E2,-2.6E0,2.E1));
#221=LINE('',#220,#219);
#222=DIRECTION('',(0.E0,-1.E0,0.E0));
#223=VECTOR('',#222,2.6E0);
#224=CARTESIAN_POINT('',(1.59E2,0.E0,4.15E0));
#225=LINE('',#224,#223);
#226=DIRECTION('',(0.E0,-1.E0,0.E0));
#227=VECTOR('',#226,2.6E0);
#228=CARTESIAN_POINT('',(3.2E1,0.E0,4.15E0));
#229=LINE('',#228,#227);
#230=DIRECTION('',(0.E0,-1.E0,0.E0));
#231=VECTOR('',#230,2.6E0);
#232=CARTESIAN_POINT('',(3.2E1,0.E0,-4.15E0));
#233=LINE('',#232,#231);
#234=DIRECTION('',(0.E0,-1.E0,0.E0));
#235=VECTOR('',#234,2.6E0);
#236=CARTESIAN_POINT('',(1.59E2,0.E0,-4.15E0));
#237=LINE('',#236,#235);
#238=CARTESIAN_POINT('',(-1.55E1,0.E0,0.E0));
#239=CARTESIAN_POINT('',(1.55E1,0.E0,0.E0));
#240=VERTEX_POINT('',#238);
#241=VERTEX_POINT('',#239);
#242=CARTESIAN_POINT('',(-1.55E1,-2.6E0,0.E0));
#243=CARTESIAN_POINT('',(1.55E1,-2.6E0,0.E0));
#244=VERTEX_POINT('',#242);
#245=VERTEX_POINT('',#243);
#246=CARTESIAN_POINT('',(2.6E1,0.E0,-7.2E1));
#247=CARTESIAN_POINT('',(2.E1,0.E0,-7.8E1));
#248=VERTEX_POINT('',#246);
#249=VERTEX_POINT('',#247);
#250=CARTESIAN_POINT('',(2.E1,-2.6E0,-7.8E1));
#251=VERTEX_POINT('',#250);
#252=CARTESIAN_POINT('',(2.6E1,-2.6E0,-7.2E1));
#253=VERTEX_POINT('',#252);
#254=CARTESIAN_POINT('',(1.74E2,0.E0,-2.E1));
#255=CARTESIAN_POINT('',(1.68E2,0.E0,-2.6E1));
#256=VERTEX_POINT('',#254);
#257=VERTEX_POINT('',#255);
#258=CARTESIAN_POINT('',(1.68E2,-2.6E0,-2.6E1));
#259=VERTEX_POINT('',#258);
#260=CARTESIAN_POINT('',(1.74E2,-2.6E0,-2.E1));
#261=VERTEX_POINT('',#260);
#262=CARTESIAN_POINT('',(1.68E2,0.E0,2.6E1));
#263=CARTESIAN_POINT('',(1.74E2,0.E0,2.E1));
#264=VERTEX_POINT('',#262);
#265=VERTEX_POINT('',#263);
#266=CARTESIAN_POINT('',(1.74E2,-2.6E0,2.E1));
#267=VERTEX_POINT('',#266);
#268=CARTESIAN_POINT('',(1.68E2,-2.6E0,2.6E1));
#269=VERTEX_POINT('',#268);
#270=CARTESIAN_POINT('',(-2.E1,0.E0,-7.8E1));
#271=CARTESIAN_POINT('',(-2.6E1,0.E0,-7.2E1));
#272=VERTEX_POINT('',#270);
#273=VERTEX_POINT('',#271);
#274=CARTESIAN_POINT('',(-2.6E1,-2.6E0,-7.2E1));
#275=VERTEX_POINT('',#274);
#276=CARTESIAN_POINT('',(-2.E1,-2.6E0,-7.8E1));
#277=VERTEX_POINT('',#276);
#278=CARTESIAN_POINT('',(-2.6E1,0.E0,2.E1));
#279=CARTESIAN_POINT('',(-2.E1,0.E0,2.6E1));
#280=VERTEX_POINT('',#278);
#281=VERTEX_POINT('',#279);
#282=CARTESIAN_POINT('',(-2.E1,-2.6E0,2.6E1));
#283=VERTEX_POINT('',#282);
#284=CARTESIAN_POINT('',(-2.6E1,-2.6E0,2.E1));
#285=VERTEX_POINT('',#284);
#286=CARTESIAN_POINT('',(3.2E1,0.E0,-2.6E1));
#287=CARTESIAN_POINT('',(3.2E1,-2.6E0,-2.6E1));
#288=VERTEX_POINT('',#286);
#289=VERTEX_POINT('',#287);
#290=CARTESIAN_POINT('',(2.6E1,0.E0,-3.2E1));
#291=CARTESIAN_POINT('',(2.6E1,-2.6E0,-3.2E1));
#292=VERTEX_POINT('',#290);
#293=VERTEX_POINT('',#291);
#294=CARTESIAN_POINT('',(1.59E2,0.E0,4.15E0));
#295=CARTESIAN_POINT('',(1.59E2,0.E0,-4.15E0));
#296=VERTEX_POINT('',#294);
#297=VERTEX_POINT('',#295);
#298=CARTESIAN_POINT('',(3.2E1,0.E0,4.15E0));
#299=VERTEX_POINT('',#298);
#300=CARTESIAN_POINT('',(3.2E1,0.E0,-4.15E0));
#301=VERTEX_POINT('',#300);
#302=CARTESIAN_POINT('',(1.59E2,-2.6E0,4.15E0));
#303=CARTESIAN_POINT('',(1.59E2,-2.6E0,-4.15E0));
#304=VERTEX_POINT('',#302);
#305=VERTEX_POINT('',#303);
#306=CARTESIAN_POINT('',(3.2E1,-2.6E0,4.15E0));
#307=VERTEX_POINT('',#306);
#308=CARTESIAN_POINT('',(3.2E1,-2.6E0,-4.15E0));
#309=VERTEX_POINT('',#308);
#310=CARTESIAN_POINT('',(0.E0,0.E0,0.E0));
#311=DIRECTION('',(0.E0,1.E0,0.E0));
#312=DIRECTION('',(-1.E0,0.E0,0.E0));
#313=AXIS2_PLACEMENT_3D('',#310,#311,#312);
#314=PLANE('',#313);
#316=ORIENTED_EDGE('',*,*,#315,.F.);
#318=ORIENTED_EDGE('',*,*,#317,.F.);
#320=ORIENTED_EDGE('',*,*,#319,.F.);
#322=ORIENTED_EDGE('',*,*,#321,.F.);
#324=ORIENTED_EDGE('',*,*,#323,.F.);
#326=ORIENTED_EDGE('',*,*,#325,.F.);
#328=ORIENTED_EDGE('',*,*,#327,.F.);
#330=ORIENTED_EDGE('',*,*,#329,.F.);
#332=ORIENTED_EDGE('',*,*,#331,.F.);
#334=ORIENTED_EDGE('',*,*,#333,.F.);
#336=ORIENTED_EDGE('',*,*,#335,.F.);
#338=ORIENTED_EDGE('',*,*,#337,.F.);
#339=EDGE_LOOP('',(#316,#318,#320,#322,#324,#326,#328,#330,#332,#334,#336,
#338));
#340=FACE_OUTER_BOUND('',#339,.F.);
#342=ORIENTED_EDGE('',*,*,#341,.T.);
#344=ORIENTED_EDGE('',*,*,#343,.T.);
#345=EDGE_LOOP('',(#342,#344));
#346=FACE_BOUND('',#345,.F.);
#348=ORIENTED_EDGE('',*,*,#347,.T.);
#350=ORIENTED_EDGE('',*,*,#349,.F.);
#352=ORIENTED_EDGE('',*,*,#351,.T.);
#354=ORIENTED_EDGE('',*,*,#353,.F.);
#355=EDGE_LOOP('',(#348,#350,#352,#354));
#356=FACE_BOUND('',#355,.F.);
#357=ADVANCED_FACE('',(#340,#346,#356),#314,.T.);
#358=CARTESIAN_POINT('',(0.E0,-1.3E0,0.E0));
#359=DIRECTION('',(0.E0,1.E0,0.E0));
#360=DIRECTION('',(-1.E0,0.E0,0.E0));
#361=AXIS2_PLACEMENT_3D('',#358,#359,#360);
#362=CYLINDRICAL_SURFACE('',#361,1.55E1);
#363=ORIENTED_EDGE('',*,*,#341,.F.);
#365=ORIENTED_EDGE('',*,*,#364,.T.);
#367=ORIENTED_EDGE('',*,*,#366,.T.);
#369=ORIENTED_EDGE('',*,*,#368,.F.);
#370=EDGE_LOOP('',(#363,#365,#367,#369));
#371=FACE_OUTER_BOUND('',#370,.F.);
#372=ADVANCED_FACE('',(#371),#362,.F.);
#373=CARTESIAN_POINT('',(0.E0,-1.3E0,0.E0));
#374=DIRECTION('',(0.E0,1.E0,0.E0));
#375=DIRECTION('',(1.E0,0.E0,0.E0));
#376=AXIS2_PLACEMENT_3D('',#373,#374,#375);
#377=CYLINDRICAL_SURFACE('',#376,1.55E1);
#378=ORIENTED_EDGE('',*,*,#343,.F.);
#379=ORIENTED_EDGE('',*,*,#368,.T.);
#381=ORIENTED_EDGE('',*,*,#380,.T.);
#382=ORIENTED_EDGE('',*,*,#364,.F.);
#383=EDGE_LOOP('',(#378,#379,#381,#382));
#384=FACE_OUTER_BOUND('',#383,.F.);
#385=ADVANCED_FACE('',(#384),#377,.F.);
#386=CARTESIAN_POINT('',(0.E0,-2.6E0,0.E0));
#387=DIRECTION('',(0.E0,1.E0,0.E0));
#388=DIRECTION('',(-1.E0,0.E0,0.E0));
#389=AXIS2_PLACEMENT_3D('',#386,#387,#388);
#390=PLANE('',#389);
#392=ORIENTED_EDGE('',*,*,#391,.T.);
#394=ORIENTED_EDGE('',*,*,#393,.F.);
#396=ORIENTED_EDGE('',*,*,#395,.T.);
#398=ORIENTED_EDGE('',*,*,#397,.F.);
#400=ORIENTED_EDGE('',*,*,#399,.T.);
#402=ORIENTED_EDGE('',*,*,#401,.F.);
#404=ORIENTED_EDGE('',*,*,#403,.T.);
#406=ORIENTED_EDGE('',*,*,#405,.F.);
#408=ORIENTED_EDGE('',*,*,#407,.T.);
#410=ORIENTED_EDGE('',*,*,#409,.F.);
#412=ORIENTED_EDGE('',*,*,#411,.T.);
#414=ORIENTED_EDGE('',*,*,#413,.F.);
#415=EDGE_LOOP('',(#392,#394,#396,#398,#400,#402,#404,#406,#408,#410,#412,
#414));
#416=FACE_OUTER_BOUND('',#415,.F.);
#417=ORIENTED_EDGE('',*,*,#366,.F.);
#418=ORIENTED_EDGE('',*,*,#380,.F.);
#419=EDGE_LOOP('',(#417,#418));
#420=FACE_BOUND('',#419,.F.);
#422=ORIENTED_EDGE('',*,*,#421,.F.);
#424=ORIENTED_EDGE('',*,*,#423,.T.);
#426=ORIENTED_EDGE('',*,*,#425,.F.);
#428=ORIENTED_EDGE('',*,*,#427,.T.);
#429=EDGE_LOOP('',(#422,#424,#426,#428));
#430=FACE_BOUND('',#429,.F.);
#431=ADVANCED_FACE('',(#416,#420,#430),#390,.F.);
#432=CARTESIAN_POINT('',(1.E2,-1.3E0,-2.6E1));
#433=DIRECTION('',(0.E0,0.E0,-1.E0));
#434=DIRECTION('',(-1.E0,0.E0,0.E0));
#435=AXIS2_PLACEMENT_3D('',#432,#433,#434);
#436=PLANE('',#435);
#438=ORIENTED_EDGE('',*,*,#437,.T.);
#439=ORIENTED_EDGE('',*,*,#391,.F.);
#441=ORIENTED_EDGE('',*,*,#440,.T.);
#442=ORIENTED_EDGE('',*,*,#319,.T.);
#443=EDGE_LOOP('',(#438,#439,#441,#442));
#444=FACE_OUTER_BOUND('',#443,.F.);
#445=ADVANCED_FACE('',(#444),#436,.T.);
#446=CARTESIAN_POINT('',(3.2E1,3.527528964875E-1,-3.2E1));
#447=DIRECTION('',(0.E0,-1.E0,0.E0));
#448=DIRECTION('',(0.E0,0.E0,1.E0));
#449=AXIS2_PLACEMENT_3D('',#446,#447,#448);
#450=CYLINDRICAL_SURFACE('',#449,6.E0);
#451=ORIENTED_EDGE('',*,*,#437,.F.);
#452=ORIENTED_EDGE('',*,*,#317,.T.);
#454=ORIENTED_EDGE('',*,*,#453,.T.);
#455=ORIENTED_EDGE('',*,*,#393,.T.);
#456=EDGE_LOOP('',(#451,#452,#454,#455));
#457=FACE_OUTER_BOUND('',#456,.F.);
#458=ADVANCED_FACE('',(#457),#450,.F.);
#459=CARTESIAN_POINT('',(2.6E1,-1.3E0,-5.2E1));
#460=DIRECTION('',(1.E0,0.E0,0.E0));
#461=DIRECTION('',(0.E0,0.E0,-1.E0));
#462=AXIS2_PLACEMENT_3D('',#459,#460,#461);
#463=PLANE('',#462);
#464=ORIENTED_EDGE('',*,*,#453,.F.);
#465=ORIENTED_EDGE('',*,*,#315,.T.);
#467=ORIENTED_EDGE('',*,*,#466,.F.);
#468=ORIENTED_EDGE('',*,*,#395,.F.);
#469=EDGE_LOOP('',(#464,#465,#467,#468));
#470=FACE_OUTER_BOUND('',#469,.F.);
#471=ADVANCED_FACE('',(#470),#463,.T.);
#472=CARTESIAN_POINT('',(2.E1,-2.901408954959E0,-7.2E1));
#473=DIRECTION('',(0.E0,1.E0,0.E0));
#474=DIRECTION('',(1.E0,0.E0,0.E0));
#475=AXIS2_PLACEMENT_3D('',#472,#473,#474);
#476=CYLINDRICAL_SURFACE('',#475,6.E0);
#477=ORIENTED_EDGE('',*,*,#337,.T.);
#479=ORIENTED_EDGE('',*,*,#478,.F.);
#480=ORIENTED_EDGE('',*,*,#397,.T.);
#481=ORIENTED_EDGE('',*,*,#466,.T.);
#482=EDGE_LOOP('',(#477,#479,#480,#481));
#483=FACE_OUTER_BOUND('',#482,.F.);
#484=ADVANCED_FACE('',(#483),#476,.T.);
#485=CARTESIAN_POINT('',(0.E0,-1.3E0,-7.8E1));
#486=DIRECTION('',(0.E0,0.E0,-1.E0));
#487=DIRECTION('',(-1.E0,0.E0,0.E0));
#488=AXIS2_PLACEMENT_3D('',#485,#486,#487);
#489=PLANE('',#488);
#490=ORIENTED_EDGE('',*,*,#478,.T.);
#491=ORIENTED_EDGE('',*,*,#335,.T.);
#493=ORIENTED_EDGE('',*,*,#492,.F.);
#494=ORIENTED_EDGE('',*,*,#399,.F.);
#495=EDGE_LOOP('',(#490,#491,#493,#494));
#496=FACE_OUTER_BOUND('',#495,.F.);
#497=ADVANCED_FACE('',(#496),#489,.T.);
#498=CARTESIAN_POINT('',(-2.E1,-2.901408954959E0,-7.2E1));
#499=DIRECTION('',(0.E0,1.E0,0.E0));
#500=DIRECTION('',(0.E0,0.E0,-1.E0));
#501=AXIS2_PLACEMENT_3D('',#498,#499,#500);
#502=CYLINDRICAL_SURFACE('',#501,6.E0);
#503=ORIENTED_EDGE('',*,*,#333,.T.);
#505=ORIENTED_EDGE('',*,*,#504,.F.);
#506=ORIENTED_EDGE('',*,*,#401,.T.);
#507=ORIENTED_EDGE('',*,*,#492,.T.);
#508=EDGE_LOOP('',(#503,#505,#506,#507));
#509=FACE_OUTER_BOUND('',#508,.F.);
#510=ADVANCED_FACE('',(#509),#502,.T.);
#511=CARTESIAN_POINT('',(-2.6E1,-1.3E0,-2.6E1));
#512=DIRECTION('',(-1.E0,0.E0,0.E0));
#513=DIRECTION('',(0.E0,0.E0,1.E0));
#514=AXIS2_PLACEMENT_3D('',#511,#512,#513);
#515=PLANE('',#514);
#516=ORIENTED_EDGE('',*,*,#504,.T.);
#517=ORIENTED_EDGE('',*,*,#331,.T.);
#519=ORIENTED_EDGE('',*,*,#518,.F.);
#520=ORIENTED_EDGE('',*,*,#403,.F.);
#521=EDGE_LOOP('',(#516,#517,#519,#520));
#522=FACE_OUTER_BOUND('',#521,.F.);
#523=ADVANCED_FACE('',(#522),#515,.T.);
#524=CARTESIAN_POINT('',(-2.E1,-2.901408954959E0,2.E1));
#525=DIRECTION('',(0.E0,1.E0,0.E0));
#526=DIRECTION('',(-1.E0,0.E0,0.E0));
#527=AXIS2_PLACEMENT_3D('',#524,#525,#526);
#528=CYLINDRICAL_SURFACE('',#527,6.E0);
#529=ORIENTED_EDGE('',*,*,#329,.T.);
#531=ORIENTED_EDGE('',*,*,#530,.F.);
#532=ORIENTED_EDGE('',*,*,#405,.T.);
#533=ORIENTED_EDGE('',*,*,#518,.T.);
#534=EDGE_LOOP('',(#529,#531,#532,#533));
#535=FACE_OUTER_BOUND('',#534,.F.);
#536=ADVANCED_FACE('',(#535),#528,.T.);
#537=CARTESIAN_POINT('',(7.4E1,-1.3E0,2.6E1));
#538=DIRECTION('',(0.E0,0.E0,1.E0));
#539=DIRECTION('',(1.E0,0.E0,0.E0));
#540=AXIS2_PLACEMENT_3D('',#537,#538,#539);
#541=PLANE('',#540);
#543=ORIENTED_EDGE('',*,*,#542,.F.);
#544=ORIENTED_EDGE('',*,*,#407,.F.);
#545=ORIENTED_EDGE('',*,*,#530,.T.);
#546=ORIENTED_EDGE('',*,*,#327,.T.);
#547=EDGE_LOOP('',(#543,#544,#545,#546));
#548=FACE_OUTER_BOUND('',#547,.F.);
#549=ADVANCED_FACE('',(#548),#541,.T.);
#550=CARTESIAN_POINT('',(1.68E2,-2.901408954959E0,2.E1));
#551=DIRECTION('',(0.E0,1.E0,0.E0));
#552=DIRECTION('',(0.E0,0.E0,1.E0));
#553=AXIS2_PLACEMENT_3D('',#550,#551,#552);
#554=CYLINDRICAL_SURFACE('',#553,6.E0);
#555=ORIENTED_EDGE('',*,*,#325,.T.);
#557=ORIENTED_EDGE('',*,*,#556,.F.);
#558=ORIENTED_EDGE('',*,*,#409,.T.);
#559=ORIENTED_EDGE('',*,*,#542,.T.);
#560=EDGE_LOOP('',(#555,#557,#558,#559));
#561=FACE_OUTER_BOUND('',#560,.F.);
#562=ADVANCED_FACE('',(#561),#554,.T.);
#563=CARTESIAN_POINT('',(1.74E2,-1.3E0,0.E0));
#564=DIRECTION('',(1.E0,0.E0,0.E0));
#565=DIRECTION('',(0.E0,0.E0,-1.E0));
#566=AXIS2_PLACEMENT_3D('',#563,#564,#565);
#567=PLANE('',#566);
#569=ORIENTED_EDGE('',*,*,#568,.F.);
#570=ORIENTED_EDGE('',*,*,#411,.F.);
#571=ORIENTED_EDGE('',*,*,#556,.T.);
#572=ORIENTED_EDGE('',*,*,#323,.T.);
#573=EDGE_LOOP('',(#569,#570,#571,#572));
#574=FACE_OUTER_BOUND('',#573,.F.);
#575=ADVANCED_FACE('',(#574),#567,.T.);
#576=CARTESIAN_POINT('',(1.68E2,-2.901408954959E0,-2.E1));
#577=DIRECTION('',(0.E0,1.E0,0.E0));
#578=DIRECTION('',(1.E0,0.E0,0.E0));
#579=AXIS2_PLACEMENT_3D('',#576,#577,#578);
#580=CYLINDRICAL_SURFACE('',#579,6.E0);
#581=ORIENTED_EDGE('',*,*,#321,.T.);
#582=ORIENTED_EDGE('',*,*,#440,.F.);
#583=ORIENTED_EDGE('',*,*,#413,.T.);
#584=ORIENTED_EDGE('',*,*,#568,.T.);
#585=EDGE_LOOP('',(#581,#582,#583,#584));
#586=FACE_OUTER_BOUND('',#585,.F.);
#587=ADVANCED_FACE('',(#586),#580,.T.);
#588=CARTESIAN_POINT('',(1.59E2,-1.3E0,0.E0));
#589=DIRECTION('',(0.E0,1.E0,0.E0));
#590=DIRECTION('',(0.E0,0.E0,1.E0));
#591=AXIS2_PLACEMENT_3D('',#588,#589,#590);
#592=CYLINDRICAL_SURFACE('',#591,4.15E0);
#593=ORIENTED_EDGE('',*,*,#347,.F.);
#595=ORIENTED_EDGE('',*,*,#594,.T.);
#596=ORIENTED_EDGE('',*,*,#421,.T.);
#598=ORIENTED_EDGE('',*,*,#597,.F.);
#599=EDGE_LOOP('',(#593,#595,#596,#598));
#600=FACE_OUTER_BOUND('',#599,.F.);
#601=ADVANCED_FACE('',(#600),#592,.F.);
#602=CARTESIAN_POINT('',(9.55E1,-1.3E0,4.15E0));
#603=DIRECTION('',(0.E0,0.E0,-1.E0));
#604=DIRECTION('',(-1.E0,0.E0,0.E0));
#605=AXIS2_PLACEMENT_3D('',#602,#603,#604);
#606=PLANE('',#605);
#607=ORIENTED_EDGE('',*,*,#353,.T.);
#609=ORIENTED_EDGE('',*,*,#608,.T.);
#610=ORIENTED_EDGE('',*,*,#423,.F.);
#611=ORIENTED_EDGE('',*,*,#594,.F.);
#612=EDGE_LOOP('',(#607,#609,#610,#611));
#613=FACE_OUTER_BOUND('',#612,.F.);
#614=ADVANCED_FACE('',(#613),#606,.T.);
#615=CARTESIAN_POINT('',(3.2E1,-1.3E0,0.E0));
#616=DIRECTION('',(0.E0,1.E0,0.E0));
#617=DIRECTION('',(0.E0,0.E0,-1.E0));
#618=AXIS2_PLACEMENT_3D('',#615,#616,#617);
#619=CYLINDRICAL_SURFACE('',#618,4.15E0);
#620=ORIENTED_EDGE('',*,*,#351,.F.);
#622=ORIENTED_EDGE('',*,*,#621,.T.);
#623=ORIENTED_EDGE('',*,*,#425,.T.);
#624=ORIENTED_EDGE('',*,*,#608,.F.);
#625=EDGE_LOOP('',(#620,#622,#623,#624));
#626=FACE_OUTER_BOUND('',#625,.F.);
#627=ADVANCED_FACE('',(#626),#619,.F.);
#628=CARTESIAN_POINT('',(9.55E1,-1.3E0,-4.15E0));
#629=DIRECTION('',(0.E0,0.E0,1.E0));
#630=DIRECTION('',(1.E0,0.E0,0.E0));
#631=AXIS2_PLACEMENT_3D('',#628,#629,#630);
#632=PLANE('',#631);
#633=ORIENTED_EDGE('',*,*,#349,.T.);
#634=ORIENTED_EDGE('',*,*,#597,.T.);
#635=ORIENTED_EDGE('',*,*,#427,.F.);
#636=ORIENTED_EDGE('',*,*,#621,.F.);
#637=EDGE_LOOP('',(#633,#634,#635,#636));
#638=FACE_OUTER_BOUND('',#637,.F.);
#639=ADVANCED_FACE('',(#638),#632,.T.);
#640=CLOSED_SHELL('',(#357,#372,#385,#431,#445,#458,#471,#484,#497,#510,#523,
#536,#549,#562,#575,#587,#601,#614,#627,#639));
#641=MANIFOLD_SOLID_BREP('',#640);
#642=(LENGTH_UNIT()NAMED_UNIT(*)SI_UNIT(.MILLI.,.METRE.));
#643=DIMENSIONAL_EXPONENTS(0.E0,0.E0,0.E0,0.E0,0.E0,0.E0,0.E0);
#644=(NAMED_UNIT(*)PLANE_ANGLE_UNIT()SI_UNIT($,.RADIAN.));
#645=PLANE_ANGLE_MEASURE_WITH_UNIT(PLANE_ANGLE_MEASURE(1.745329251994E-2),#644);
#646=(CONVERSION_BASED_UNIT('DEGREE',#645)NAMED_UNIT(#643)PLANE_ANGLE_UNIT());
#647=(NAMED_UNIT(*)SI_UNIT($,.STERADIAN.)SOLID_ANGLE_UNIT());
#648=UNCERTAINTY_MEASURE_WITH_UNIT(LENGTH_MEASURE(2.254300207615E-2),#642,
'closure',
'Maximum model space distance between geometric entities at asserted connectivities');
#649=(GEOMETRIC_REPRESENTATION_CONTEXT(3)GLOBAL_UNCERTAINTY_ASSIGNED_CONTEXT((
#648))GLOBAL_UNIT_ASSIGNED_CONTEXT((#642,#646,#647))REPRESENTATION_CONTEXT
('ID1','3'));
#650=CARTESIAN_POINT('',(0.E0,0.E0,0.E0));
#651=DIRECTION('',(0.E0,0.E0,1.E0));
#652=DIRECTION('',(1.E0,0.E0,0.E0));
#655=APPLICATION_CONTEXT(
'CONFIGURATION CONTROLLED 3D DESIGNS OF MECHANICAL PARTS AND ASSEMBLIES');
#656=APPLICATION_PROTOCOL_DEFINITION('international standard',
'config_control_design',1994,#655);
#657=DESIGN_CONTEXT('',#655,'design');
#658=MECHANICAL_CONTEXT('',#655,'mechanical');
#659=PRODUCT('165743','165743','NOT SPECIFIED',(#658));
#660=PRODUCT_DEFINITION_FORMATION_WITH_SPECIFIED_SOURCE('1','LAST_VERSION',#659,
.MADE.);
#669=CARTESIAN_POINT('',(0.E0,0.E0,0.E0));
#670=DIRECTION('',(0.E0,0.E0,1.E0));
#671=DIRECTION('',(1.E0,0.E0,0.E0));
#672=AXIS2_PLACEMENT_3D('',#669,#670,#671);
#673=ITEM_DEFINED_TRANSFORMATION('','',#653,#672);
#674=(REPRESENTATION_RELATIONSHIP('','',#654,#666)REPRESENTATION_RELATIONSHIP_WITH_TRANSFORMATION(#673)SHAPE_REPRESENTATION_RELATIONSHIP());
#675=CONTEXT_DEPENDENT_SHAPE_REPRESENTATION(#674,#668);
#676=(LENGTH_UNIT()NAMED_UNIT(*)SI_UNIT(.MILLI.,.METRE.));
#677=DIMENSIONAL_EXPONENTS(0.E0,0.E0,0.E0,0.E0,0.E0,0.E0,0.E0);
#678=(NAMED_UNIT(*)PLANE_ANGLE_UNIT()SI_UNIT($,.RADIAN.));
#679=PLANE_ANGLE_MEASURE_WITH_UNIT(PLANE_ANGLE_MEASURE(1.745329251994E-2),#678);
#680=(CONVERSION_BASED_UNIT('DEGREE',#679)NAMED_UNIT(#677)PLANE_ANGLE_UNIT());
#681=(NAMED_UNIT(*)SI_UNIT($,.STERADIAN.)SOLID_ANGLE_UNIT());
#682=UNCERTAINTY_MEASURE_WITH_UNIT(LENGTH_MEASURE(2.254300207615E-2),#676,
'closure',
'Maximum model space distance between geometric entities at asserted connectivities');
#683=(GEOMETRIC_REPRESENTATION_CONTEXT(3)GLOBAL_UNCERTAINTY_ASSIGNED_CONTEXT((
#682))GLOBAL_UNIT_ASSIGNED_CONTEXT((#676,#680,#681))REPRESENTATION_CONTEXT
('ID2','3'));
#684=CARTESIAN_POINT('',(0.E0,0.E0,0.E0));
#685=DIRECTION('',(0.E0,0.E0,1.E0));
#686=DIRECTION('',(1.E0,0.E0,0.E0));
#688=MECHANICAL_CONTEXT('',#655,'mechanical');
#689=PRODUCT('167088_ASM','167088_ASM','NOT SPECIFIED',(#688));
#690=PRODUCT_DEFINITION_FORMATION_WITH_SPECIFIED_SOURCE('','LAST_VERSION',#689,
.MADE.);
#692=PRODUCT_CATEGORY('part','');
#693=PRODUCT_RELATED_PRODUCT_CATEGORY('assembly','',(#689));
#694=PRODUCT_CATEGORY_RELATIONSHIP('','',#692,#693);
#695=PRODUCT_CATEGORY('part','');
#696=PRODUCT_RELATED_PRODUCT_CATEGORY('detail','',(#659));
#697=PRODUCT_CATEGORY_RELATIONSHIP('','',#695,#696);
#698=SECURITY_CLASSIFICATION_LEVEL('unclassified');
#699=SECURITY_CLASSIFICATION('','',#698);
#700=CC_DESIGN_SECURITY_CLASSIFICATION(#699,(#660,#690,#667));
#701=APPROVAL_STATUS('approved');
#702=APPROVAL(#701,'');
#703=CC_DESIGN_APPROVAL(#702,(#699,#660,#690,#661,#691));
#704=CALENDAR_DATE(112,23,8);
#705=COORDINATED_UNIVERSAL_TIME_OFFSET(5,0,.BEHIND.);
#706=LOCAL_TIME(10,37,5.2E1,#705);
#707=DATE_AND_TIME(#704,#706);
#708=APPROVAL_DATE_TIME(#707,#702);
#709=DATE_TIME_ROLE('creation_date');
#710=CC_DESIGN_DATE_AND_TIME_ASSIGNMENT(#707,#709,(#661,#691));
#711=DATE_TIME_ROLE('classification_date');
#712=CC_DESIGN_DATE_AND_TIME_ASSIGNMENT(#707,#711,(#699));
#713=PERSON('UNSPECIFIED','UNSPECIFIED',$,$,$,$);
#714=ORGANIZATION('UNSPECIFIED','UNSPECIFIED','UNSPECIFIED');
#715=PERSON_AND_ORGANIZATION(#713,#714);
#716=APPROVAL_ROLE('approver');
#717=APPROVAL_PERSON_ORGANIZATION(#715,#702,#716);
#718=PERSON_AND_ORGANIZATION_ROLE('creator');
#719=CC_DESIGN_PERSON_AND_ORGANIZATION_ASSIGNMENT(#715,#718,(#660,#690,#661,
#691));
#720=PERSON_AND_ORGANIZATION_ROLE('design_supplier');
#721=CC_DESIGN_PERSON_AND_ORGANIZATION_ASSIGNMENT(#715,#720,(#660,#690));
#722=PERSON_AND_ORGANIZATION_ROLE('classification_officer');
#723=CC_DESIGN_PERSON_AND_ORGANIZATION_ASSIGNMENT(#715,#722,(#699));
#724=PERSON_AND_ORGANIZATION_ROLE('design_owner');
#725=CC_DESIGN_PERSON_AND_ORGANIZATION_ASSIGNMENT(#715,#724,(#689,#659));
#6=CIRCLE('',#5,1.55E1);
#11=CIRCLE('',#10,1.55E1);
#24=CIRCLE('',#23,6.E0);
#33=CIRCLE('',#32,6.E0);
#42=CIRCLE('',#41,6.E0);
#51=CIRCLE('',#50,6.E0);
#60=CIRCLE('',#59,6.E0);
#65=CIRCLE('',#64,4.15E0);
#74=CIRCLE('',#73,4.15E0);
#91=CIRCLE('',#90,1.55E1);
#96=CIRCLE('',#95,1.55E1);
#109=CIRCLE('',#108,6.E0);
#118=CIRCLE('',#117,6.E0);
#127=CIRCLE('',#126,6.E0);
#136=CIRCLE('',#135,6.E0);
#145=CIRCLE('',#144,6.E0);
#150=CIRCLE('',#149,4.15E0);
#159=CIRCLE('',#158,4.15E0);
#176=CIRCLE('',#175,6.E0);
#181=CIRCLE('',#180,6.E0);
#315=EDGE_CURVE('',#292,#248,#15,.T.);
#317=EDGE_CURVE('',#288,#292,#176,.T.);
#319=EDGE_CURVE('',#257,#288,#19,.T.);
#321=EDGE_CURVE('',#256,#257,#24,.T.);
#323=EDGE_CURVE('',#265,#256,#28,.T.);
#325=EDGE_CURVE('',#264,#265,#33,.T.);
#327=EDGE_CURVE('',#281,#264,#37,.T.);
#329=EDGE_CURVE('',#280,#281,#42,.T.);
#331=EDGE_CURVE('',#273,#280,#46,.T.);
#333=EDGE_CURVE('',#272,#273,#51,.T.);
#335=EDGE_CURVE('',#249,#272,#55,.T.);
#337=EDGE_CURVE('',#248,#249,#60,.T.);
#341=EDGE_CURVE('',#240,#241,#6,.T.);
#343=EDGE_CURVE('',#241,#240,#11,.T.);
#347=EDGE_CURVE('',#296,#297,#65,.T.);
#349=EDGE_CURVE('',#301,#297,#69,.T.);
#351=EDGE_CURVE('',#301,#299,#74,.T.);
#353=EDGE_CURVE('',#296,#299,#78,.T.);
#364=EDGE_CURVE('',#240,#244,#82,.T.);
#366=EDGE_CURVE('',#244,#245,#91,.T.);
#368=EDGE_CURVE('',#241,#245,#86,.T.);
#380=EDGE_CURVE('',#245,#244,#96,.T.);
#391=EDGE_CURVE('',#259,#289,#100,.T.);
#393=EDGE_CURVE('',#293,#289,#181,.T.);
#395=EDGE_CURVE('',#293,#253,#104,.T.);
#397=EDGE_CURVE('',#251,#253,#109,.T.);
#399=EDGE_CURVE('',#251,#277,#113,.T.);
#401=EDGE_CURVE('',#275,#277,#118,.T.);
#403=EDGE_CURVE('',#275,#285,#122,.T.);
#405=EDGE_CURVE('',#283,#285,#127,.T.);
#407=EDGE_CURVE('',#283,#269,#131,.T.);
#409=EDGE_CURVE('',#267,#269,#136,.T.);
#411=EDGE_CURVE('',#267,#261,#140,.T.);
#413=EDGE_CURVE('',#259,#261,#145,.T.);
#421=EDGE_CURVE('',#304,#305,#150,.T.);
#423=EDGE_CURVE('',#304,#307,#154,.T.);
#425=EDGE_CURVE('',#309,#307,#159,.T.);
#427=EDGE_CURVE('',#309,#305,#163,.T.);
#437=EDGE_CURVE('',#288,#289,#167,.T.);
#440=EDGE_CURVE('',#259,#257,#171,.T.);
#453=EDGE_CURVE('',#292,#293,#185,.T.);
#466=EDGE_CURVE('',#253,#248,#189,.T.);
#478=EDGE_CURVE('',#251,#249,#193,.T.);
#492=EDGE_CURVE('',#277,#272,#197,.T.);
#504=EDGE_CURVE('',#275,#273,#201,.T.);
#518=EDGE_CURVE('',#285,#280,#205,.T.);
#530=EDGE_CURVE('',#283,#281,#213,.T.);
#542=EDGE_CURVE('',#269,#264,#209,.T.);
#556=EDGE_CURVE('',#267,#265,#221,.T.);
#568=EDGE_CURVE('',#261,#256,#217,.T.);
#594=EDGE_CURVE('',#296,#304,#225,.T.);
#597=EDGE_CURVE('',#297,#305,#237,.T.);
#608=EDGE_CURVE('',#299,#307,#229,.T.);
#621=EDGE_CURVE('',#301,#309,#233,.T.);
#653=AXIS2_PLACEMENT_3D('',#650,#651,#652);
#654=ADVANCED_BREP_SHAPE_REPRESENTATION('',(#653,#641),#649);
#661=PRODUCT_DEFINITION('design','',#660,#657);
#662=PRODUCT_DEFINITION_SHAPE('','SHAPE FOR 165743.',#661);
#663=SHAPE_DEFINITION_REPRESENTATION(#662,#654);
#664=SHAPE_DEFINITION_REPRESENTATION(#665,#666);
#665=PRODUCT_DEFINITION_SHAPE('','SHAPE FOR 167088_ASM.',#691);
#666=SHAPE_REPRESENTATION('',(#672,#687),#683);
#667=NEXT_ASSEMBLY_USAGE_OCCURRENCE('0','Next assembly relationship','165743',
#691,#661,$);
#668=PRODUCT_DEFINITION_SHAPE('Placement #0',
'Placement of 165743 with respect to 167088_ASM',#667);
#687=AXIS2_PLACEMENT_3D('',#684,#685,#686);
#691=PRODUCT_DEFINITION('design','',#690,#657);
ENDSEC;
END-ISO-10303-21;
