ISO-10303-21;
HEADER;
FILE_DESCRIPTION((''),'2;1');
FILE_NAME('166418_ASM','2016-01-05T',('pdmadmin'),(''),
'PRO/ENGINEER BY PARAMETRIC TECHNOLOGY CORPORATION, 2013230',
'PRO/ENGINEER BY PARAMETRIC TECHNOLOGY CORPORATION, 2013230','');
FILE_SCHEMA(('CONFIG_CONTROL_DESIGN'));
ENDSEC;
DATA;
#1=CARTESIAN_POINT('',(0.E0,0.E0,2.839375E-1));
#2=DIRECTION('',(0.E0,0.E0,1.E0));
#3=DIRECTION('',(0.E0,1.E0,0.E0));
#4=AXIS2_PLACEMENT_3D('',#1,#2,#3);
#6=CARTESIAN_POINT('',(0.E0,0.E0,2.839375E-1));
#7=DIRECTION('',(0.E0,0.E0,-1.E0));
#8=DIRECTION('',(0.E0,1.E0,0.E0));
#9=AXIS2_PLACEMENT_3D('',#6,#7,#8);
#11=CARTESIAN_POINT('',(0.E0,0.E0,-3.060625E-1));
#12=DIRECTION('',(0.E0,0.E0,1.E0));
#13=DIRECTION('',(0.E0,1.E0,0.E0));
#14=AXIS2_PLACEMENT_3D('',#11,#12,#13);
#16=DIRECTION('',(0.E0,0.E0,1.E0));
#17=VECTOR('',#16,5.9E-1);
#18=CARTESIAN_POINT('',(0.E0,6.E-2,-3.060625E-1));
#19=LINE('',#18,#17);
#20=CARTESIAN_POINT('',(0.E0,0.E0,-3.060625E-1));
#21=DIRECTION('',(0.E0,0.E0,-1.E0));
#22=DIRECTION('',(0.E0,1.E0,0.E0));
#23=AXIS2_PLACEMENT_3D('',#20,#21,#22);
#25=DIRECTION('',(0.E0,0.E0,1.E0));
#26=VECTOR('',#25,5.9E-1);
#27=CARTESIAN_POINT('',(0.E0,-6.E-2,-3.060625E-1));
#28=LINE('',#27,#26);
#29=CARTESIAN_POINT('',(0.E0,0.E0,-3.060625E-1));
#30=DIRECTION('',(0.E0,0.E0,1.E0));
#31=DIRECTION('',(0.E0,1.E0,0.E0));
#32=AXIS2_PLACEMENT_3D('',#29,#30,#31);
#34=CARTESIAN_POINT('',(0.E0,0.E0,-3.060625E-1));
#35=DIRECTION('',(0.E0,0.E0,-1.E0));
#36=DIRECTION('',(0.E0,1.E0,0.E0));
#37=AXIS2_PLACEMENT_3D('',#34,#35,#36);
#39=CARTESIAN_POINT('',(0.E0,0.E0,-1.141741183569E-1));
#40=DIRECTION('',(0.E0,0.E0,1.E0));
#41=DIRECTION('',(0.E0,1.E0,0.E0));
#42=AXIS2_PLACEMENT_3D('',#39,#40,#41);
#44=DIRECTION('',(0.E0,0.E0,-1.E0));
#45=VECTOR('',#44,1.918883816431E-1);
#46=CARTESIAN_POINT('',(0.E0,3.15E-2,-1.141741183569E-1));
#47=LINE('',#46,#45);
#48=CARTESIAN_POINT('',(0.E0,0.E0,-1.141741183569E-1));
#49=DIRECTION('',(0.E0,0.E0,-1.E0));
#50=DIRECTION('',(0.E0,1.E0,0.E0));
#51=AXIS2_PLACEMENT_3D('',#48,#49,#50);
#53=DIRECTION('',(0.E0,0.E0,-1.E0));
#54=VECTOR('',#53,1.918883816431E-1);
#55=CARTESIAN_POINT('',(0.E0,-3.15E-2,-1.141741183569E-1));
#56=LINE('',#55,#54);
#57=DIRECTION('',(0.E0,-8.571673007021E-1,-5.150380749101E-1));
#58=VECTOR('',#57,1.574955086241E-2);
#59=CARTESIAN_POINT('',(0.E0,4.5E-2,-1.060625E-1));
#60=LINE('',#59,#58);
#61=CARTESIAN_POINT('',(0.E0,0.E0,-1.060625E-1));
#62=DIRECTION('',(0.E0,0.E0,-1.E0));
#63=DIRECTION('',(0.E0,1.E0,0.E0));
#64=AXIS2_PLACEMENT_3D('',#61,#62,#63);
#66=DIRECTION('',(0.E0,8.571673007021E-1,-5.150380749101E-1));
#67=VECTOR('',#66,1.574955086241E-2);
#68=CARTESIAN_POINT('',(0.E0,-4.5E-2,-1.060625E-1));
#69=LINE('',#68,#67);
#70=CARTESIAN_POINT('',(0.E0,0.E0,-1.060625E-1));
#71=DIRECTION('',(0.E0,0.E0,1.E0));
#72=DIRECTION('',(0.E0,1.E0,0.E0));
#73=AXIS2_PLACEMENT_3D('',#70,#71,#72);
#75=CARTESIAN_POINT('',(0.E0,0.E0,2.839375E-1));
#76=DIRECTION('',(0.E0,0.E0,1.E0));
#77=DIRECTION('',(0.E0,1.E0,0.E0));
#78=AXIS2_PLACEMENT_3D('',#75,#76,#77);
#80=DIRECTION('',(0.E0,0.E0,-1.E0));
#81=VECTOR('',#80,3.9E-1);
#82=CARTESIAN_POINT('',(0.E0,4.5E-2,2.839375E-1));
#83=LINE('',#82,#81);
#84=CARTESIAN_POINT('',(0.E0,0.E0,2.839375E-1));
#85=DIRECTION('',(0.E0,0.E0,-1.E0));
#86=DIRECTION('',(0.E0,1.E0,0.E0));
#87=AXIS2_PLACEMENT_3D('',#84,#85,#86);
#89=DIRECTION('',(0.E0,0.E0,-1.E0));
#90=VECTOR('',#89,3.9E-1);
#91=CARTESIAN_POINT('',(0.E0,-4.5E-2,2.839375E-1));
#92=LINE('',#91,#90);
#93=CARTESIAN_POINT('',(0.E0,4.5E-2,2.839375E-1));
#94=CARTESIAN_POINT('',(0.E0,4.5E-2,-1.060625E-1));
#95=VERTEX_POINT('',#93);
#96=VERTEX_POINT('',#94);
#97=CARTESIAN_POINT('',(0.E0,3.15E-2,-1.141741183569E-1));
#98=VERTEX_POINT('',#97);
#99=CARTESIAN_POINT('',(0.E0,3.15E-2,-3.060625E-1));
#100=VERTEX_POINT('',#99);
#101=CARTESIAN_POINT('',(0.E0,6.E-2,-3.060625E-1));
#102=CARTESIAN_POINT('',(0.E0,6.E-2,2.839375E-1));
#103=VERTEX_POINT('',#101);
#104=VERTEX_POINT('',#102);
#105=CARTESIAN_POINT('',(0.E0,-4.5E-2,2.839375E-1));
#106=CARTESIAN_POINT('',(0.E0,-4.5E-2,-1.060625E-1));
#107=VERTEX_POINT('',#105);
#108=VERTEX_POINT('',#106);
#109=CARTESIAN_POINT('',(0.E0,-3.15E-2,-1.141741183569E-1));
#110=VERTEX_POINT('',#109);
#111=CARTESIAN_POINT('',(0.E0,-3.15E-2,-3.060625E-1));
#112=VERTEX_POINT('',#111);
#113=CARTESIAN_POINT('',(0.E0,-6.E-2,-3.060625E-1));
#114=CARTESIAN_POINT('',(0.E0,-6.E-2,2.839375E-1));
#115=VERTEX_POINT('',#113);
#116=VERTEX_POINT('',#114);
#117=CARTESIAN_POINT('',(0.E0,0.E0,2.839375E-1));
#118=DIRECTION('',(0.E0,0.E0,1.E0));
#119=DIRECTION('',(0.E0,1.E0,0.E0));
#120=AXIS2_PLACEMENT_3D('',#117,#118,#119);
#121=PLANE('',#120);
#123=ORIENTED_EDGE('',*,*,#122,.F.);
#125=ORIENTED_EDGE('',*,*,#124,.T.);
#126=EDGE_LOOP('',(#123,#125));
#127=FACE_OUTER_BOUND('',#126,.F.);
#129=ORIENTED_EDGE('',*,*,#128,.F.);
#131=ORIENTED_EDGE('',*,*,#130,.T.);
#132=EDGE_LOOP('',(#129,#131));
#133=FACE_BOUND('',#132,.F.);
#134=ADVANCED_FACE('',(#127,#133),#121,.T.);
#135=CARTESIAN_POINT('',(0.E0,0.E0,-3.355625E-1));
#136=DIRECTION('',(0.E0,0.E0,1.E0));
#137=DIRECTION('',(0.E0,1.E0,0.E0));
#138=AXIS2_PLACEMENT_3D('',#135,#136,#137);
#139=CYLINDRICAL_SURFACE('',#138,6.E-2);
#141=ORIENTED_EDGE('',*,*,#140,.T.);
#142=ORIENTED_EDGE('',*,*,#122,.T.);
#144=ORIENTED_EDGE('',*,*,#143,.F.);
#146=ORIENTED_EDGE('',*,*,#145,.F.);
#147=EDGE_LOOP('',(#141,#142,#144,#146));
#148=FACE_OUTER_BOUND('',#147,.F.);
#149=ADVANCED_FACE('',(#148),#139,.T.);
#150=CARTESIAN_POINT('',(0.E0,0.E0,-3.355625E-1));
#151=DIRECTION('',(0.E0,0.E0,1.E0));
#152=DIRECTION('',(0.E0,1.E0,0.E0));
#153=AXIS2_PLACEMENT_3D('',#150,#151,#152);
#154=CYLINDRICAL_SURFACE('',#153,6.E-2);
#155=ORIENTED_EDGE('',*,*,#140,.F.);
#157=ORIENTED_EDGE('',*,*,#156,.T.);
#158=ORIENTED_EDGE('',*,*,#143,.T.);
#159=ORIENTED_EDGE('',*,*,#124,.F.);
#160=EDGE_LOOP('',(#155,#157,#158,#159));
#161=FACE_OUTER_BOUND('',#160,.F.);
#162=ADVANCED_FACE('',(#161),#154,.T.);
#163=CARTESIAN_POINT('',(0.E0,0.E0,-3.060625E-1));
#164=DIRECTION('',(0.E0,0.E0,1.E0));
#165=DIRECTION('',(0.E0,1.E0,0.E0));
#166=AXIS2_PLACEMENT_3D('',#163,#164,#165);
#167=PLANE('',#166);
#168=ORIENTED_EDGE('',*,*,#156,.F.);
#169=ORIENTED_EDGE('',*,*,#145,.T.);
#170=EDGE_LOOP('',(#168,#169));
#171=FACE_OUTER_BOUND('',#170,.F.);
#173=ORIENTED_EDGE('',*,*,#172,.F.);
#175=ORIENTED_EDGE('',*,*,#174,.T.);
#176=EDGE_LOOP('',(#173,#175));
#177=FACE_BOUND('',#176,.F.);
#178=ADVANCED_FACE('',(#171,#177),#167,.F.);
#179=CARTESIAN_POINT('',(0.E0,0.E0,-3.355625E-1));
#180=DIRECTION('',(0.E0,0.E0,1.E0));
#181=DIRECTION('',(0.E0,1.E0,0.E0));
#182=AXIS2_PLACEMENT_3D('',#179,#180,#181);
#183=CYLINDRICAL_SURFACE('',#182,3.15E-2);
#185=ORIENTED_EDGE('',*,*,#184,.T.);
#186=ORIENTED_EDGE('',*,*,#172,.T.);
#188=ORIENTED_EDGE('',*,*,#187,.F.);
#190=ORIENTED_EDGE('',*,*,#189,.F.);
#191=EDGE_LOOP('',(#185,#186,#188,#190));
#192=FACE_OUTER_BOUND('',#191,.F.);
#193=ADVANCED_FACE('',(#192),#183,.F.);
#194=CARTESIAN_POINT('',(0.E0,0.E0,-3.355625E-1));
#195=DIRECTION('',(0.E0,0.E0,1.E0));
#196=DIRECTION('',(0.E0,1.E0,0.E0));
#197=AXIS2_PLACEMENT_3D('',#194,#195,#196);
#198=CYLINDRICAL_SURFACE('',#197,3.15E-2);
#199=ORIENTED_EDGE('',*,*,#184,.F.);
#201=ORIENTED_EDGE('',*,*,#200,.T.);
#202=ORIENTED_EDGE('',*,*,#187,.T.);
#203=ORIENTED_EDGE('',*,*,#174,.F.);
#204=EDGE_LOOP('',(#199,#201,#202,#203));
#205=FACE_OUTER_BOUND('',#204,.F.);
#206=ADVANCED_FACE('',(#205),#198,.F.);
#207=CARTESIAN_POINT('',(0.E0,0.E0,-1.101183091784E-1));
#208=DIRECTION('',(0.E0,0.E0,1.E0));
#209=DIRECTION('',(0.E0,1.E0,0.E0));
#210=AXIS2_PLACEMENT_3D('',#207,#208,#209);
#211=CONICAL_SURFACE('',#210,3.825E-2,5.9E1);
#213=ORIENTED_EDGE('',*,*,#212,.F.);
#215=ORIENTED_EDGE('',*,*,#214,.T.);
#217=ORIENTED_EDGE('',*,*,#216,.T.);
#218=ORIENTED_EDGE('',*,*,#200,.F.);
#219=EDGE_LOOP('',(#213,#215,#217,#218));
#220=FACE_OUTER_BOUND('',#219,.F.);
#221=ADVANCED_FACE('',(#220),#211,.F.);
#222=CARTESIAN_POINT('',(0.E0,0.E0,-1.101183091784E-1));
#223=DIRECTION('',(0.E0,0.E0,1.E0));
#224=DIRECTION('',(0.E0,1.E0,0.E0));
#225=AXIS2_PLACEMENT_3D('',#222,#223,#224);
#226=CONICAL_SURFACE('',#225,3.825E-2,5.9E1);
#227=ORIENTED_EDGE('',*,*,#212,.T.);
#228=ORIENTED_EDGE('',*,*,#189,.T.);
#229=ORIENTED_EDGE('',*,*,#216,.F.);
#231=ORIENTED_EDGE('',*,*,#230,.F.);
#232=EDGE_LOOP('',(#227,#228,#229,#231));
#233=FACE_OUTER_BOUND('',#232,.F.);
#234=ADVANCED_FACE('',(#233),#226,.F.);
#235=CARTESIAN_POINT('',(0.E0,0.E0,-3.355625E-1));
#236=DIRECTION('',(0.E0,0.E0,1.E0));
#237=DIRECTION('',(0.E0,1.E0,0.E0));
#238=AXIS2_PLACEMENT_3D('',#235,#236,#237);
#239=CYLINDRICAL_SURFACE('',#238,4.5E-2);
#241=ORIENTED_EDGE('',*,*,#240,.T.);
#242=ORIENTED_EDGE('',*,*,#230,.T.);
#244=ORIENTED_EDGE('',*,*,#243,.F.);
#245=ORIENTED_EDGE('',*,*,#130,.F.);
#246=EDGE_LOOP('',(#241,#242,#244,#245));
#247=FACE_OUTER_BOUND('',#246,.F.);
#248=ADVANCED_FACE('',(#247),#239,.F.);
#249=CARTESIAN_POINT('',(0.E0,0.E0,-3.355625E-1));
#250=DIRECTION('',(0.E0,0.E0,1.E0));
#251=DIRECTION('',(0.E0,1.E0,0.E0));
#252=AXIS2_PLACEMENT_3D('',#249,#250,#251);
#253=CYLINDRICAL_SURFACE('',#252,4.5E-2);
#254=ORIENTED_EDGE('',*,*,#240,.F.);
#255=ORIENTED_EDGE('',*,*,#128,.T.);
#256=ORIENTED_EDGE('',*,*,#243,.T.);
#257=ORIENTED_EDGE('',*,*,#214,.F.);
#258=EDGE_LOOP('',(#254,#255,#256,#257));
#259=FACE_OUTER_BOUND('',#258,.F.);
#260=ADVANCED_FACE('',(#259),#253,.F.);
#261=CLOSED_SHELL('',(#134,#149,#162,#178,#193,#206,#221,#234,#248,#260));
#262=MANIFOLD_SOLID_BREP('',#261);
#263=DIMENSIONAL_EXPONENTS(1.E0,0.E0,0.E0,0.E0,0.E0,0.E0,0.E0);
#265=LENGTH_MEASURE_WITH_UNIT(LENGTH_MEASURE(2.54E1),#264);
#266=(CONVERSION_BASED_UNIT('INCH',#265)LENGTH_UNIT()NAMED_UNIT(#263));
#267=DIMENSIONAL_EXPONENTS(0.E0,0.E0,0.E0,0.E0,0.E0,0.E0,0.E0);
#269=PLANE_ANGLE_MEASURE_WITH_UNIT(PLANE_ANGLE_MEASURE(1.745329251994E-2),#268);
#270=(CONVERSION_BASED_UNIT('DEGREE',#269)NAMED_UNIT(*)PLANE_ANGLE_UNIT());
#272=UNCERTAINTY_MEASURE_WITH_UNIT(LENGTH_MEASURE(6.517415259132E-5),#266,
'closure',
'Maximum model space distance between geometric entities at asserted connectivities');
#273=(GEOMETRIC_REPRESENTATION_CONTEXT(3)GLOBAL_UNCERTAINTY_ASSIGNED_CONTEXT((
#272))GLOBAL_UNIT_ASSIGNED_CONTEXT((#266,#270,#271))REPRESENTATION_CONTEXT
('ID1','3'));
#274=CARTESIAN_POINT('',(0.E0,0.E0,0.E0));
#275=DIRECTION('',(0.E0,0.E0,1.E0));
#276=DIRECTION('',(1.E0,0.E0,0.E0));
#279=APPLICATION_CONTEXT(
'CONFIGURATION CONTROLLED 3D DESIGNS OF MECHANICAL PARTS AND ASSEMBLIES');
#280=APPLICATION_PROTOCOL_DEFINITION('international standard',
'config_control_design',1994,#279);
#281=DESIGN_CONTEXT('',#279,'design');
#282=MECHANICAL_CONTEXT('',#279,'mechanical');
#283=PRODUCT('39944','39944','NOT SPECIFIED',(#282));
#284=PRODUCT_DEFINITION_FORMATION_WITH_SPECIFIED_SOURCE('1','LAST_VERSION',#283,
.MADE.);
#293=CARTESIAN_POINT('',(0.E0,0.E0,0.E0));
#294=DIRECTION('',(0.E0,0.E0,1.E0));
#295=DIRECTION('',(1.E0,0.E0,0.E0));
#296=AXIS2_PLACEMENT_3D('',#293,#294,#295);
#297=ITEM_DEFINED_TRANSFORMATION('','',#277,#296);
#298=(REPRESENTATION_RELATIONSHIP('','',#278,#290)REPRESENTATION_RELATIONSHIP_WITH_TRANSFORMATION(#297)SHAPE_REPRESENTATION_RELATIONSHIP());
#299=CONTEXT_DEPENDENT_SHAPE_REPRESENTATION(#298,#292);
#300=CARTESIAN_POINT('',(0.E0,0.E0,0.E0));
#301=DIRECTION('',(0.E0,0.E0,1.E0));
#302=DIRECTION('',(0.E0,-1.E0,0.E0));
#303=AXIS2_PLACEMENT_3D('',#300,#301,#302);
#305=CARTESIAN_POINT('',(0.E0,0.E0,0.E0));
#306=DIRECTION('',(0.E0,0.E0,1.E0));
#307=DIRECTION('',(0.E0,1.E0,0.E0));
#308=AXIS2_PLACEMENT_3D('',#305,#306,#307);
#310=CARTESIAN_POINT('',(0.E0,0.E0,0.E0));
#311=DIRECTION('',(0.E0,0.E0,-1.E0));
#312=DIRECTION('',(0.E0,-1.E0,0.E0));
#313=AXIS2_PLACEMENT_3D('',#310,#311,#312);
#315=CARTESIAN_POINT('',(0.E0,0.E0,0.E0));
#316=DIRECTION('',(0.E0,0.E0,-1.E0));
#317=DIRECTION('',(0.E0,1.E0,0.E0));
#318=AXIS2_PLACEMENT_3D('',#315,#316,#317);
#320=DIRECTION('',(0.E0,0.E0,1.E0));
#321=VECTOR('',#320,1.E0);
#322=CARTESIAN_POINT('',(0.E0,-4.35E-2,0.E0));
#323=LINE('',#322,#321);
#324=DIRECTION('',(0.E0,0.E0,1.E0));
#325=VECTOR('',#324,1.E0);
#326=CARTESIAN_POINT('',(0.E0,4.35E-2,0.E0));
#327=LINE('',#326,#325);
#328=CARTESIAN_POINT('',(0.E0,0.E0,1.E0));
#329=DIRECTION('',(0.E0,0.E0,1.E0));
#330=DIRECTION('',(0.E0,-1.E0,0.E0));
#331=AXIS2_PLACEMENT_3D('',#328,#329,#330);
#333=CARTESIAN_POINT('',(0.E0,0.E0,1.E0));
#334=DIRECTION('',(0.E0,0.E0,1.E0));
#335=DIRECTION('',(0.E0,1.E0,0.E0));
#336=AXIS2_PLACEMENT_3D('',#333,#334,#335);
#338=CARTESIAN_POINT('',(0.E0,0.E0,1.E0));
#339=DIRECTION('',(0.E0,0.E0,-1.E0));
#340=DIRECTION('',(0.E0,-1.E0,0.E0));
#341=AXIS2_PLACEMENT_3D('',#338,#339,#340);
#343=CARTESIAN_POINT('',(0.E0,0.E0,1.E0));
#344=DIRECTION('',(0.E0,0.E0,-1.E0));
#345=DIRECTION('',(0.E0,1.E0,0.E0));
#346=AXIS2_PLACEMENT_3D('',#343,#344,#345);
#348=DIRECTION('',(0.E0,0.E0,1.E0));
#349=VECTOR('',#348,1.E0);
#350=CARTESIAN_POINT('',(0.E0,-2.95E-2,0.E0));
#351=LINE('',#350,#349);
#352=DIRECTION('',(0.E0,0.E0,1.E0));
#353=VECTOR('',#352,1.E0);
#354=CARTESIAN_POINT('',(0.E0,2.95E-2,0.E0));
#355=LINE('',#354,#353);
#356=CARTESIAN_POINT('',(0.E0,-4.35E-2,0.E0));
#357=CARTESIAN_POINT('',(0.E0,4.35E-2,0.E0));
#358=VERTEX_POINT('',#356);
#359=VERTEX_POINT('',#357);
#360=CARTESIAN_POINT('',(0.E0,-2.95E-2,0.E0));
#361=CARTESIAN_POINT('',(0.E0,2.95E-2,0.E0));
#362=VERTEX_POINT('',#360);
#363=VERTEX_POINT('',#361);
#364=CARTESIAN_POINT('',(0.E0,-4.35E-2,1.E0));
#365=CARTESIAN_POINT('',(0.E0,4.35E-2,1.E0));
#366=VERTEX_POINT('',#364);
#367=VERTEX_POINT('',#365);
#368=CARTESIAN_POINT('',(0.E0,-2.95E-2,1.E0));
#369=CARTESIAN_POINT('',(0.E0,2.95E-2,1.E0));
#370=VERTEX_POINT('',#368);
#371=VERTEX_POINT('',#369);
#372=CARTESIAN_POINT('',(0.E0,0.E0,0.E0));
#373=DIRECTION('',(0.E0,0.E0,1.E0));
#374=DIRECTION('',(0.E0,-1.E0,0.E0));
#375=AXIS2_PLACEMENT_3D('',#372,#373,#374);
#376=PLANE('',#375);
#378=ORIENTED_EDGE('',*,*,#377,.T.);
#380=ORIENTED_EDGE('',*,*,#379,.T.);
#381=EDGE_LOOP('',(#378,#380));
#382=FACE_OUTER_BOUND('',#381,.F.);
#384=ORIENTED_EDGE('',*,*,#383,.T.);
#386=ORIENTED_EDGE('',*,*,#385,.T.);
#387=EDGE_LOOP('',(#384,#386));
#388=FACE_BOUND('',#387,.F.);
#389=ADVANCED_FACE('',(#382,#388),#376,.F.);
#390=CARTESIAN_POINT('',(0.E0,0.E0,0.E0));
#391=DIRECTION('',(0.E0,0.E0,1.E0));
#392=DIRECTION('',(0.E0,-1.E0,0.E0));
#393=AXIS2_PLACEMENT_3D('',#390,#391,#392);
#394=CYLINDRICAL_SURFACE('',#393,4.35E-2);
#395=ORIENTED_EDGE('',*,*,#377,.F.);
#397=ORIENTED_EDGE('',*,*,#396,.T.);
#399=ORIENTED_EDGE('',*,*,#398,.T.);
#401=ORIENTED_EDGE('',*,*,#400,.F.);
#402=EDGE_LOOP('',(#395,#397,#399,#401));
#403=FACE_OUTER_BOUND('',#402,.F.);
#404=ADVANCED_FACE('',(#403),#394,.T.);
#405=CARTESIAN_POINT('',(0.E0,0.E0,0.E0));
#406=DIRECTION('',(0.E0,0.E0,1.E0));
#407=DIRECTION('',(0.E0,-1.E0,0.E0));
#408=AXIS2_PLACEMENT_3D('',#405,#406,#407);
#409=CYLINDRICAL_SURFACE('',#408,4.35E-2);
#410=ORIENTED_EDGE('',*,*,#379,.F.);
#411=ORIENTED_EDGE('',*,*,#400,.T.);
#413=ORIENTED_EDGE('',*,*,#412,.T.);
#414=ORIENTED_EDGE('',*,*,#396,.F.);
#415=EDGE_LOOP('',(#410,#411,#413,#414));
#416=FACE_OUTER_BOUND('',#415,.F.);
#417=ADVANCED_FACE('',(#416),#409,.T.);
#418=CARTESIAN_POINT('',(0.E0,0.E0,1.E0));
#419=DIRECTION('',(0.E0,0.E0,1.E0));
#420=DIRECTION('',(0.E0,-1.E0,0.E0));
#421=AXIS2_PLACEMENT_3D('',#418,#419,#420);
#422=PLANE('',#421);
#423=ORIENTED_EDGE('',*,*,#398,.F.);
#424=ORIENTED_EDGE('',*,*,#412,.F.);
#425=EDGE_LOOP('',(#423,#424));
#426=FACE_OUTER_BOUND('',#425,.F.);
#428=ORIENTED_EDGE('',*,*,#427,.F.);
#430=ORIENTED_EDGE('',*,*,#429,.F.);
#431=EDGE_LOOP('',(#428,#430));
#432=FACE_BOUND('',#431,.F.);
#433=ADVANCED_FACE('',(#426,#432),#422,.T.);
#434=CARTESIAN_POINT('',(0.E0,0.E0,0.E0));
#435=DIRECTION('',(0.E0,0.E0,1.E0));
#436=DIRECTION('',(0.E0,-1.E0,0.E0));
#437=AXIS2_PLACEMENT_3D('',#434,#435,#436);
#438=CYLINDRICAL_SURFACE('',#437,2.95E-2);
#439=ORIENTED_EDGE('',*,*,#383,.F.);
#441=ORIENTED_EDGE('',*,*,#440,.T.);
#442=ORIENTED_EDGE('',*,*,#427,.T.);
#444=ORIENTED_EDGE('',*,*,#443,.F.);
#445=EDGE_LOOP('',(#439,#441,#442,#444));
#446=FACE_OUTER_BOUND('',#445,.F.);
#447=ADVANCED_FACE('',(#446),#438,.F.);
#448=CARTESIAN_POINT('',(0.E0,0.E0,0.E0));
#449=DIRECTION('',(0.E0,0.E0,1.E0));
#450=DIRECTION('',(0.E0,-1.E0,0.E0));
#451=AXIS2_PLACEMENT_3D('',#448,#449,#450);
#452=CYLINDRICAL_SURFACE('',#451,2.95E-2);
#453=ORIENTED_EDGE('',*,*,#385,.F.);
#454=ORIENTED_EDGE('',*,*,#443,.T.);
#455=ORIENTED_EDGE('',*,*,#429,.T.);
#456=ORIENTED_EDGE('',*,*,#440,.F.);
#457=EDGE_LOOP('',(#453,#454,#455,#456));
#458=FACE_OUTER_BOUND('',#457,.F.);
#459=ADVANCED_FACE('',(#458),#452,.F.);
#460=CLOSED_SHELL('',(#389,#404,#417,#433,#447,#459));
#461=MANIFOLD_SOLID_BREP('',#460);
#462=DIMENSIONAL_EXPONENTS(1.E0,0.E0,0.E0,0.E0,0.E0,0.E0,0.E0);
#464=LENGTH_MEASURE_WITH_UNIT(LENGTH_MEASURE(2.54E1),#463);
#465=(CONVERSION_BASED_UNIT('INCH',#464)LENGTH_UNIT()NAMED_UNIT(#462));
#466=DIMENSIONAL_EXPONENTS(0.E0,0.E0,0.E0,0.E0,0.E0,0.E0,0.E0);
#468=PLANE_ANGLE_MEASURE_WITH_UNIT(PLANE_ANGLE_MEASURE(1.745329251994E-2),#467);
#469=(CONVERSION_BASED_UNIT('DEGREE',#468)NAMED_UNIT(*)PLANE_ANGLE_UNIT());
#471=UNCERTAINTY_MEASURE_WITH_UNIT(LENGTH_MEASURE(1.007500268280E-4),#465,
'closure',
'Maximum model space distance between geometric entities at asserted connectivities');
#472=(GEOMETRIC_REPRESENTATION_CONTEXT(3)GLOBAL_UNCERTAINTY_ASSIGNED_CONTEXT((
#471))GLOBAL_UNIT_ASSIGNED_CONTEXT((#465,#469,#470))REPRESENTATION_CONTEXT
('ID2','3'));
#473=CARTESIAN_POINT('',(0.E0,0.E0,0.E0));
#474=DIRECTION('',(0.E0,0.E0,1.E0));
#475=DIRECTION('',(1.E0,0.E0,0.E0));
#478=MECHANICAL_CONTEXT('',#279,'mechanical');
#479=PRODUCT('39681','39681','NOT SPECIFIED',(#478));
#480=PRODUCT_DEFINITION_FORMATION_WITH_SPECIFIED_SOURCE('1','LAST_VERSION',#479,
.MADE.);
#486=CARTESIAN_POINT('',(0.E0,0.E0,7.2120125E0));
#487=DIRECTION('',(0.E0,0.E0,1.E0));
#488=DIRECTION('',(0.E0,-1.E0,0.E0));
#489=AXIS2_PLACEMENT_3D('',#486,#487,#488);
#490=ITEM_DEFINED_TRANSFORMATION('','',#476,#489);
#491=(REPRESENTATION_RELATIONSHIP('','',#477,#290)REPRESENTATION_RELATIONSHIP_WITH_TRANSFORMATION(#490)SHAPE_REPRESENTATION_RELATIONSHIP());
#492=CONTEXT_DEPENDENT_SHAPE_REPRESENTATION(#491,#485);
#495=CARTESIAN_POINT('',(0.E0,0.E0,3.26120125E1));
#496=DIRECTION('',(0.E0,0.E0,1.E0));
#497=DIRECTION('',(0.E0,-1.E0,0.E0));
#498=AXIS2_PLACEMENT_3D('',#495,#496,#497);
#499=ITEM_DEFINED_TRANSFORMATION('','',#476,#498);
#500=(REPRESENTATION_RELATIONSHIP('','',#477,#290)REPRESENTATION_RELATIONSHIP_WITH_TRANSFORMATION(#499)SHAPE_REPRESENTATION_RELATIONSHIP());
#501=CONTEXT_DEPENDENT_SHAPE_REPRESENTATION(#500,#494);
#504=CARTESIAN_POINT('',(0.E0,0.E0,5.80120125E1));
#505=DIRECTION('',(0.E0,0.E0,1.E0));
#506=DIRECTION('',(0.E0,-1.E0,0.E0));
#507=AXIS2_PLACEMENT_3D('',#504,#505,#506);
#508=ITEM_DEFINED_TRANSFORMATION('','',#476,#507);
#509=(REPRESENTATION_RELATIONSHIP('','',#477,#290)REPRESENTATION_RELATIONSHIP_WITH_TRANSFORMATION(#508)SHAPE_REPRESENTATION_RELATIONSHIP());
#510=CONTEXT_DEPENDENT_SHAPE_REPRESENTATION(#509,#503);
#512=DIMENSIONAL_EXPONENTS(0.E0,0.E0,0.E0,0.E0,0.E0,0.E0,0.E0);
#514=PLANE_ANGLE_MEASURE_WITH_UNIT(PLANE_ANGLE_MEASURE(1.745329251994E-2),#513);
#515=(CONVERSION_BASED_UNIT('DEGREE',#514)NAMED_UNIT(*)PLANE_ANGLE_UNIT());
#517=UNCERTAINTY_MEASURE_WITH_UNIT(LENGTH_MEASURE(9.128417464138E-3),#511,
'closure',
'Maximum model space distance between geometric entities at asserted connectivities');
#518=(GEOMETRIC_REPRESENTATION_CONTEXT(3)GLOBAL_UNCERTAINTY_ASSIGNED_CONTEXT((
#517))GLOBAL_UNIT_ASSIGNED_CONTEXT((#511,#515,#516))REPRESENTATION_CONTEXT
('ID3','3'));
#519=CARTESIAN_POINT('',(0.E0,0.E0,0.E0));
#520=DIRECTION('',(0.E0,0.E0,1.E0));
#521=DIRECTION('',(1.E0,0.E0,0.E0));
#523=DESIGN_CONTEXT('',#279,'design');
#524=MECHANICAL_CONTEXT('',#279,'mechanical');
#525=PRODUCT('166418_ASM','166418_ASM','NOT SPECIFIED',(#524));
#526=PRODUCT_DEFINITION_FORMATION_WITH_SPECIFIED_SOURCE('1','LAST_VERSION',#525,
.MADE.);
#528=PRODUCT_CATEGORY('part','');
#529=PRODUCT_RELATED_PRODUCT_CATEGORY('assembly','',(#525));
#530=PRODUCT_CATEGORY_RELATIONSHIP('','',#528,#529);
#531=PRODUCT_CATEGORY('part','');
#532=PRODUCT_RELATED_PRODUCT_CATEGORY('detail','',(#283,#479));
#533=PRODUCT_CATEGORY_RELATIONSHIP('','',#531,#532);
#534=SECURITY_CLASSIFICATION_LEVEL('unclassified');
#535=SECURITY_CLASSIFICATION('','',#534);
#536=CC_DESIGN_SECURITY_CLASSIFICATION(#535,(#284,#480,#526,#291,#484,#493,
#502));
#537=APPROVAL_STATUS('approved');
#538=APPROVAL(#537,'');
#539=CC_DESIGN_APPROVAL(#538,(#535,#284,#480,#526,#285,#481,#527));
#540=CALENDAR_DATE(116,5,1);
#541=COORDINATED_UNIVERSAL_TIME_OFFSET(6,0,.BEHIND.);
#542=LOCAL_TIME(13,6,1.3E1,#541);
#543=DATE_AND_TIME(#540,#542);
#544=APPROVAL_DATE_TIME(#543,#538);
#545=DATE_TIME_ROLE('creation_date');
#546=CC_DESIGN_DATE_AND_TIME_ASSIGNMENT(#543,#545,(#285,#481,#527));
#547=DATE_TIME_ROLE('classification_date');
#548=CC_DESIGN_DATE_AND_TIME_ASSIGNMENT(#543,#547,(#535));
#549=PERSON('UNSPECIFIED','UNSPECIFIED',$,$,$,$);
#550=ORGANIZATION('UNSPECIFIED','UNSPECIFIED','UNSPECIFIED');
#551=PERSON_AND_ORGANIZATION(#549,#550);
#552=APPROVAL_ROLE('approver');
#553=APPROVAL_PERSON_ORGANIZATION(#551,#538,#552);
#554=PERSON_AND_ORGANIZATION_ROLE('creator');
#555=CC_DESIGN_PERSON_AND_ORGANIZATION_ASSIGNMENT(#551,#554,(#284,#480,#526,
#285,#481,#527));
#556=PERSON_AND_ORGANIZATION_ROLE('design_supplier');
#557=CC_DESIGN_PERSON_AND_ORGANIZATION_ASSIGNMENT(#551,#556,(#284,#480,#526));
#558=PERSON_AND_ORGANIZATION_ROLE('classification_officer');
#559=CC_DESIGN_PERSON_AND_ORGANIZATION_ASSIGNMENT(#551,#558,(#535));
#560=PERSON_AND_ORGANIZATION_ROLE('design_owner');
#561=CC_DESIGN_PERSON_AND_ORGANIZATION_ASSIGNMENT(#551,#560,(#525,#283,#479));
#5=CIRCLE('',#4,6.E-2);
#10=CIRCLE('',#9,6.E-2);
#15=CIRCLE('',#14,6.E-2);
#24=CIRCLE('',#23,6.E-2);
#33=CIRCLE('',#32,3.15E-2);
#38=CIRCLE('',#37,3.15E-2);
#43=CIRCLE('',#42,3.15E-2);
#52=CIRCLE('',#51,3.15E-2);
#65=CIRCLE('',#64,4.5E-2);
#74=CIRCLE('',#73,4.5E-2);
#79=CIRCLE('',#78,4.5E-2);
#88=CIRCLE('',#87,4.5E-2);
#122=EDGE_CURVE('',#104,#116,#5,.T.);
#124=EDGE_CURVE('',#104,#116,#10,.T.);
#128=EDGE_CURVE('',#95,#107,#88,.T.);
#130=EDGE_CURVE('',#95,#107,#79,.T.);
#140=EDGE_CURVE('',#103,#104,#19,.T.);
#143=EDGE_CURVE('',#115,#116,#28,.T.);
#145=EDGE_CURVE('',#103,#115,#15,.T.);
#156=EDGE_CURVE('',#103,#115,#24,.T.);
#172=EDGE_CURVE('',#100,#112,#33,.T.);
#174=EDGE_CURVE('',#100,#112,#38,.T.);
#184=EDGE_CURVE('',#98,#100,#47,.T.);
#187=EDGE_CURVE('',#110,#112,#56,.T.);
#189=EDGE_CURVE('',#98,#110,#43,.T.);
#200=EDGE_CURVE('',#98,#110,#52,.T.);
#212=EDGE_CURVE('',#96,#98,#60,.T.);
#214=EDGE_CURVE('',#96,#108,#65,.T.);
#216=EDGE_CURVE('',#108,#110,#69,.T.);
#230=EDGE_CURVE('',#96,#108,#74,.T.);
#240=EDGE_CURVE('',#95,#96,#83,.T.);
#243=EDGE_CURVE('',#107,#108,#92,.T.);
#264=(LENGTH_UNIT()NAMED_UNIT(*)SI_UNIT(.MILLI.,.METRE.));
#268=(NAMED_UNIT(*)PLANE_ANGLE_UNIT()SI_UNIT($,.RADIAN.));
#271=(NAMED_UNIT(*)SI_UNIT($,.STERADIAN.)SOLID_ANGLE_UNIT());
#277=AXIS2_PLACEMENT_3D('',#274,#275,#276);
#278=ADVANCED_BREP_SHAPE_REPRESENTATION('',(#277,#262),#273);
#285=PRODUCT_DEFINITION('design','',#284,#281);
#286=PRODUCT_DEFINITION_SHAPE('','SHAPE FOR 39944.',#285);
#287=SHAPE_DEFINITION_REPRESENTATION(#286,#278);
#288=SHAPE_DEFINITION_REPRESENTATION(#289,#290);
#289=PRODUCT_DEFINITION_SHAPE('','SHAPE FOR 166418_ASM.',#527);
#290=SHAPE_REPRESENTATION('',(#296,#489,#498,#507,#522),#518);
#291=NEXT_ASSEMBLY_USAGE_OCCURRENCE('0','Next assembly relationship','39944',
#527,#285,$);
#292=PRODUCT_DEFINITION_SHAPE('Placement #0',
'Placement of 39944 with respect to 166418_ASM',#291);
#304=CIRCLE('',#303,4.35E-2);
#309=CIRCLE('',#308,4.35E-2);
#314=CIRCLE('',#313,2.95E-2);
#319=CIRCLE('',#318,2.95E-2);
#332=CIRCLE('',#331,4.35E-2);
#337=CIRCLE('',#336,4.35E-2);
#342=CIRCLE('',#341,2.95E-2);
#347=CIRCLE('',#346,2.95E-2);
#377=EDGE_CURVE('',#358,#359,#304,.T.);
#379=EDGE_CURVE('',#359,#358,#309,.T.);
#383=EDGE_CURVE('',#362,#363,#314,.T.);
#385=EDGE_CURVE('',#363,#362,#319,.T.);
#396=EDGE_CURVE('',#358,#366,#323,.T.);
#398=EDGE_CURVE('',#366,#367,#332,.T.);
#400=EDGE_CURVE('',#359,#367,#327,.T.);
#412=EDGE_CURVE('',#367,#366,#337,.T.);
#427=EDGE_CURVE('',#370,#371,#342,.T.);
#429=EDGE_CURVE('',#371,#370,#347,.T.);
#440=EDGE_CURVE('',#362,#370,#351,.T.);
#443=EDGE_CURVE('',#363,#371,#355,.T.);
#463=(LENGTH_UNIT()NAMED_UNIT(*)SI_UNIT(.MILLI.,.METRE.));
#467=(NAMED_UNIT(*)PLANE_ANGLE_UNIT()SI_UNIT($,.RADIAN.));
#470=(NAMED_UNIT(*)SI_UNIT($,.STERADIAN.)SOLID_ANGLE_UNIT());
#476=AXIS2_PLACEMENT_3D('',#473,#474,#475);
#477=ADVANCED_BREP_SHAPE_REPRESENTATION('',(#476,#461),#472);
#481=PRODUCT_DEFINITION('design','',#480,#281);
#482=PRODUCT_DEFINITION_SHAPE('','SHAPE FOR 39681.',#481);
#483=SHAPE_DEFINITION_REPRESENTATION(#482,#477);
#484=NEXT_ASSEMBLY_USAGE_OCCURRENCE('1','Next assembly relationship','39681',
#527,#481,$);
#485=PRODUCT_DEFINITION_SHAPE('Placement #1',
'Placement of 39681 with respect to 166418_ASM',#484);
#493=NEXT_ASSEMBLY_USAGE_OCCURRENCE('2','Next assembly relationship','39681',
#527,#481,$);
#494=PRODUCT_DEFINITION_SHAPE('Placement #2',
'Placement of 39681 with respect to 166418_ASM',#493);
#502=NEXT_ASSEMBLY_USAGE_OCCURRENCE('3','Next assembly relationship','39681',
#527,#481,$);
#503=PRODUCT_DEFINITION_SHAPE('Placement #3',
'Placement of 39681 with respect to 166418_ASM',#502);
#511=(LENGTH_UNIT()NAMED_UNIT(*)SI_UNIT(.MILLI.,.METRE.));
#513=(NAMED_UNIT(*)PLANE_ANGLE_UNIT()SI_UNIT($,.RADIAN.));
#516=(NAMED_UNIT(*)SI_UNIT($,.STERADIAN.)SOLID_ANGLE_UNIT());
#522=AXIS2_PLACEMENT_3D('',#519,#520,#521);
#527=PRODUCT_DEFINITION('design','',#526,#523);
ENDSEC;
END-ISO-10303-21;
