ISO-10303-21;
HEADER;
FILE_DESCRIPTION((''),'2;1');
FILE_NAME('160556_SW','2011-10-04T',('banengservice'),('BANNER ENGINEERING'),
'PRO/ENGINEER BY PARAMETRIC TECHNOLOGY CORPORATION, 2009141',
'PRO/ENGINEER BY PARAMETRIC TECHNOLOGY CORPORATION, 2009141','');
FILE_SCHEMA(('CONFIG_CONTROL_DESIGN'));
ENDSEC;
DATA;
#1=CARTESIAN_POINT('',(0.E0,0.E0,0.E0));
#2=DIRECTION('',(0.E0,1.E0,0.E0));
#3=DIRECTION('',(0.E0,0.E0,-1.E0));
#4=AXIS2_PLACEMENT_3D('',#1,#2,#3);
#6=CARTESIAN_POINT('',(0.E0,0.E0,0.E0));
#7=DIRECTION('',(0.E0,1.E0,0.E0));
#8=DIRECTION('',(0.E0,0.E0,1.E0));
#9=AXIS2_PLACEMENT_3D('',#6,#7,#8);
#11=DIRECTION('',(0.E0,1.E0,0.E0));
#12=VECTOR('',#11,1.614173228346E-1);
#13=CARTESIAN_POINT('',(0.E0,0.E0,-1.019685039370E0));
#14=LINE('',#13,#12);
#15=CARTESIAN_POINT('',(0.E0,0.E0,0.E0));
#16=DIRECTION('',(0.E0,-1.E0,0.E0));
#17=DIRECTION('',(0.E0,0.E0,-1.E0));
#18=AXIS2_PLACEMENT_3D('',#15,#16,#17);
#20=DIRECTION('',(0.E0,1.E0,0.E0));
#21=VECTOR('',#20,1.614173228346E-1);
#22=CARTESIAN_POINT('',(0.E0,0.E0,1.019685039370E0));
#23=LINE('',#22,#21);
#24=CARTESIAN_POINT('',(0.E0,0.E0,0.E0));
#25=DIRECTION('',(0.E0,1.E0,0.E0));
#26=DIRECTION('',(0.E0,0.E0,-1.E0));
#27=AXIS2_PLACEMENT_3D('',#24,#25,#26);
#29=CARTESIAN_POINT('',(0.E0,1.614173228346E-1,0.E0));
#30=DIRECTION('',(0.E0,1.E0,0.E0));
#31=DIRECTION('',(0.E0,0.E0,-1.E0));
#32=AXIS2_PLACEMENT_3D('',#29,#30,#31);
#34=CARTESIAN_POINT('',(0.E0,1.614173228346E-1,-8.897637795276E-1));
#35=DIRECTION('',(1.E0,0.E0,0.E0));
#36=DIRECTION('',(0.E0,0.E0,-1.E0));
#37=AXIS2_PLACEMENT_3D('',#34,#35,#36);
#39=CARTESIAN_POINT('',(0.E0,1.614173228346E-1,0.E0));
#40=DIRECTION('',(0.E0,-1.E0,0.E0));
#41=DIRECTION('',(0.E0,0.E0,-1.E0));
#42=AXIS2_PLACEMENT_3D('',#39,#40,#41);
#44=CARTESIAN_POINT('',(0.E0,1.614173228346E-1,8.897637795276E-1));
#45=DIRECTION('',(-1.E0,0.E0,0.E0));
#46=DIRECTION('',(0.E0,0.E0,1.E0));
#47=AXIS2_PLACEMENT_3D('',#44,#45,#46);
#49=CARTESIAN_POINT('',(0.E0,2.913385826772E-1,0.E0));
#50=DIRECTION('',(0.E0,-1.E0,0.E0));
#51=DIRECTION('',(0.E0,0.E0,-1.E0));
#52=AXIS2_PLACEMENT_3D('',#49,#50,#51);
#54=CARTESIAN_POINT('',(0.E0,2.913385826772E-1,0.E0));
#55=DIRECTION('',(0.E0,1.E0,0.E0));
#56=DIRECTION('',(0.E0,0.E0,-1.E0));
#57=AXIS2_PLACEMENT_3D('',#54,#55,#56);
#59=CARTESIAN_POINT('',(0.E0,2.913385826772E-1,0.E0));
#60=DIRECTION('',(0.E0,1.E0,0.E0));
#61=DIRECTION('',(1.E0,0.E0,0.E0));
#62=AXIS2_PLACEMENT_3D('',#59,#60,#61);
#64=CARTESIAN_POINT('',(0.E0,2.913385826772E-1,0.E0));
#65=DIRECTION('',(0.E0,1.E0,0.E0));
#66=DIRECTION('',(-1.E0,0.E0,0.E0));
#67=AXIS2_PLACEMENT_3D('',#64,#65,#66);
#69=DIRECTION('',(0.E0,-1.E0,0.E0));
#70=VECTOR('',#69,7.874015748031E-2);
#71=CARTESIAN_POINT('',(1.E-1,2.913385826772E-1,0.E0));
#72=LINE('',#71,#70);
#73=DIRECTION('',(0.E0,-1.E0,0.E0));
#74=VECTOR('',#73,7.874015748031E-2);
#75=CARTESIAN_POINT('',(-1.E-1,2.913385826772E-1,0.E0));
#76=LINE('',#75,#74);
#77=CARTESIAN_POINT('',(0.E0,2.125984251969E-1,0.E0));
#78=DIRECTION('',(0.E0,1.E0,0.E0));
#79=DIRECTION('',(0.E0,0.E0,-1.E0));
#80=AXIS2_PLACEMENT_3D('',#77,#78,#79);
#82=CARTESIAN_POINT('',(0.E0,2.125984251969E-1,0.E0));
#83=DIRECTION('',(0.E0,1.E0,0.E0));
#84=DIRECTION('',(0.E0,0.E0,1.E0));
#85=AXIS2_PLACEMENT_3D('',#82,#83,#84);
#87=CARTESIAN_POINT('',(0.E0,2.125984251969E-1,0.E0));
#88=DIRECTION('',(0.E0,1.E0,0.E0));
#89=DIRECTION('',(1.E0,0.E0,0.E0));
#90=AXIS2_PLACEMENT_3D('',#87,#88,#89);
#92=CARTESIAN_POINT('',(0.E0,2.125984251969E-1,0.E0));
#93=DIRECTION('',(0.E0,1.E0,0.E0));
#94=DIRECTION('',(-1.E0,0.E0,0.E0));
#95=AXIS2_PLACEMENT_3D('',#92,#93,#94);
#97=DIRECTION('',(0.E0,-1.E0,0.E0));
#98=VECTOR('',#97,2.125984251969E-1);
#99=CARTESIAN_POINT('',(0.E0,2.125984251969E-1,-4.330708661417E-1));
#100=LINE('',#99,#98);
#101=DIRECTION('',(0.E0,-1.E0,0.E0));
#102=VECTOR('',#101,2.125984251969E-1);
#103=CARTESIAN_POINT('',(0.E0,2.125984251969E-1,4.330708661417E-1));
#104=LINE('',#103,#102);
#105=CARTESIAN_POINT('',(0.E0,0.E0,-1.019685039370E0));
#106=CARTESIAN_POINT('',(0.E0,1.614173228346E-1,-1.019685039370E0));
#107=VERTEX_POINT('',#105);
#108=VERTEX_POINT('',#106);
#109=CARTESIAN_POINT('',(0.E0,2.913385826772E-1,-8.897637795276E-1));
#110=VERTEX_POINT('',#109);
#111=CARTESIAN_POINT('',(0.E0,0.E0,1.019685039370E0));
#112=CARTESIAN_POINT('',(0.E0,1.614173228346E-1,1.019685039370E0));
#113=VERTEX_POINT('',#111);
#114=VERTEX_POINT('',#112);
#115=CARTESIAN_POINT('',(0.E0,2.913385826772E-1,8.897637795276E-1));
#116=VERTEX_POINT('',#115);
#117=CARTESIAN_POINT('',(0.E0,2.125984251969E-1,-4.330708661417E-1));
#118=CARTESIAN_POINT('',(0.E0,2.125984251969E-1,4.330708661417E-1));
#119=VERTEX_POINT('',#117);
#120=VERTEX_POINT('',#118);
#121=CARTESIAN_POINT('',(0.E0,0.E0,-4.330708661417E-1));
#122=CARTESIAN_POINT('',(0.E0,0.E0,4.330708661417E-1));
#123=VERTEX_POINT('',#121);
#124=VERTEX_POINT('',#122);
#125=CARTESIAN_POINT('',(1.E-1,2.913385826772E-1,0.E0));
#126=CARTESIAN_POINT('',(-1.E-1,2.913385826772E-1,0.E0));
#127=VERTEX_POINT('',#125);
#128=VERTEX_POINT('',#126);
#129=CARTESIAN_POINT('',(1.E-1,2.125984251969E-1,0.E0));
#130=CARTESIAN_POINT('',(-1.E-1,2.125984251969E-1,0.E0));
#131=VERTEX_POINT('',#129);
#132=VERTEX_POINT('',#130);
#133=CARTESIAN_POINT('',(0.E0,0.E0,0.E0));
#134=DIRECTION('',(0.E0,1.E0,0.E0));
#135=DIRECTION('',(0.E0,0.E0,-1.E0));
#136=AXIS2_PLACEMENT_3D('',#133,#134,#135);
#137=PLANE('',#136);
#139=ORIENTED_EDGE('',*,*,#138,.F.);
#141=ORIENTED_EDGE('',*,*,#140,.T.);
#142=EDGE_LOOP('',(#139,#141));
#143=FACE_OUTER_BOUND('',#142,.F.);
#145=ORIENTED_EDGE('',*,*,#144,.F.);
#147=ORIENTED_EDGE('',*,*,#146,.F.);
#148=EDGE_LOOP('',(#145,#147));
#149=FACE_BOUND('',#148,.F.);
#150=ADVANCED_FACE('',(#143,#149),#137,.F.);
#151=CARTESIAN_POINT('',(0.E0,-1.456692913386E-2,0.E0));
#152=DIRECTION('',(0.E0,1.E0,0.E0));
#153=DIRECTION('',(0.E0,0.E0,-1.E0));
#154=AXIS2_PLACEMENT_3D('',#151,#152,#153);
#155=CYLINDRICAL_SURFACE('',#154,1.019685039370E0);
#157=ORIENTED_EDGE('',*,*,#156,.F.);
#158=ORIENTED_EDGE('',*,*,#138,.T.);
#160=ORIENTED_EDGE('',*,*,#159,.T.);
#162=ORIENTED_EDGE('',*,*,#161,.F.);
#163=EDGE_LOOP('',(#157,#158,#160,#162));
#164=FACE_OUTER_BOUND('',#163,.F.);
#165=ADVANCED_FACE('',(#164),#155,.T.);
#166=CARTESIAN_POINT('',(0.E0,-1.456692913386E-2,0.E0));
#167=DIRECTION('',(0.E0,1.E0,0.E0));
#168=DIRECTION('',(0.E0,0.E0,-1.E0));
#169=AXIS2_PLACEMENT_3D('',#166,#167,#168);
#170=CYLINDRICAL_SURFACE('',#169,1.019685039370E0);
#171=ORIENTED_EDGE('',*,*,#156,.T.);
#173=ORIENTED_EDGE('',*,*,#172,.T.);
#174=ORIENTED_EDGE('',*,*,#159,.F.);
#175=ORIENTED_EDGE('',*,*,#140,.F.);
#176=EDGE_LOOP('',(#171,#173,#174,#175));
#177=FACE_OUTER_BOUND('',#176,.F.);
#178=ADVANCED_FACE('',(#177),#170,.T.);
#179=CARTESIAN_POINT('',(0.E0,1.614173228346E-1,0.E0));
#180=DIRECTION('',(0.E0,1.E0,0.E0));
#181=DIRECTION('',(0.E0,0.E0,-1.E0));
#182=AXIS2_PLACEMENT_3D('',#179,#180,#181);
#183=TOROIDAL_SURFACE('',#182,8.897637795276E-1,1.299212598425E-1);
#185=ORIENTED_EDGE('',*,*,#184,.T.);
#187=ORIENTED_EDGE('',*,*,#186,.T.);
#189=ORIENTED_EDGE('',*,*,#188,.F.);
#190=ORIENTED_EDGE('',*,*,#172,.F.);
#191=EDGE_LOOP('',(#185,#187,#189,#190));
#192=FACE_OUTER_BOUND('',#191,.F.);
#193=ADVANCED_FACE('',(#192),#183,.T.);
#194=CARTESIAN_POINT('',(0.E0,1.614173228346E-1,0.E0));
#195=DIRECTION('',(0.E0,1.E0,0.E0));
#196=DIRECTION('',(0.E0,0.E0,-1.E0));
#197=AXIS2_PLACEMENT_3D('',#194,#195,#196);
#198=TOROIDAL_SURFACE('',#197,8.897637795276E-1,1.299212598425E-1);
#199=ORIENTED_EDGE('',*,*,#184,.F.);
#200=ORIENTED_EDGE('',*,*,#161,.T.);
#201=ORIENTED_EDGE('',*,*,#188,.T.);
#203=ORIENTED_EDGE('',*,*,#202,.F.);
#204=EDGE_LOOP('',(#199,#200,#201,#203));
#205=FACE_OUTER_BOUND('',#204,.F.);
#206=ADVANCED_FACE('',(#205),#198,.T.);
#207=CARTESIAN_POINT('',(0.E0,2.913385826772E-1,0.E0));
#208=DIRECTION('',(0.E0,1.E0,0.E0));
#209=DIRECTION('',(0.E0,0.E0,-1.E0));
#210=AXIS2_PLACEMENT_3D('',#207,#208,#209);
#211=PLANE('',#210);
#212=ORIENTED_EDGE('',*,*,#202,.T.);
#213=ORIENTED_EDGE('',*,*,#186,.F.);
#214=EDGE_LOOP('',(#212,#213));
#215=FACE_OUTER_BOUND('',#214,.F.);
#217=ORIENTED_EDGE('',*,*,#216,.T.);
#219=ORIENTED_EDGE('',*,*,#218,.T.);
#220=EDGE_LOOP('',(#217,#219));
#221=FACE_BOUND('',#220,.F.);
#222=ADVANCED_FACE('',(#215,#221),#211,.T.);
#223=CARTESIAN_POINT('',(0.E0,2.913385826772E-1,0.E0));
#224=DIRECTION('',(0.E0,1.E0,0.E0));
#225=DIRECTION('',(1.E0,0.E0,0.E0));
#226=AXIS2_PLACEMENT_3D('',#223,#224,#225);
#227=CYLINDRICAL_SURFACE('',#226,1.E-1);
#228=ORIENTED_EDGE('',*,*,#216,.F.);
#230=ORIENTED_EDGE('',*,*,#229,.T.);
#232=ORIENTED_EDGE('',*,*,#231,.T.);
#234=ORIENTED_EDGE('',*,*,#233,.F.);
#235=EDGE_LOOP('',(#228,#230,#232,#234));
#236=FACE_OUTER_BOUND('',#235,.F.);
#237=ADVANCED_FACE('',(#236),#227,.F.);
#238=CARTESIAN_POINT('',(0.E0,2.913385826772E-1,0.E0));
#239=DIRECTION('',(0.E0,1.E0,0.E0));
#240=DIRECTION('',(1.E0,0.E0,0.E0));
#241=AXIS2_PLACEMENT_3D('',#238,#239,#240);
#242=CYLINDRICAL_SURFACE('',#241,1.E-1);
#243=ORIENTED_EDGE('',*,*,#218,.F.);
#244=ORIENTED_EDGE('',*,*,#233,.T.);
#246=ORIENTED_EDGE('',*,*,#245,.T.);
#247=ORIENTED_EDGE('',*,*,#229,.F.);
#248=EDGE_LOOP('',(#243,#244,#246,#247));
#249=FACE_OUTER_BOUND('',#248,.F.);
#250=ADVANCED_FACE('',(#249),#242,.F.);
#251=CARTESIAN_POINT('',(0.E0,2.125984251969E-1,0.E0));
#252=DIRECTION('',(0.E0,1.E0,0.E0));
#253=DIRECTION('',(0.E0,0.E0,-1.E0));
#254=AXIS2_PLACEMENT_3D('',#251,#252,#253);
#255=PLANE('',#254);
#257=ORIENTED_EDGE('',*,*,#256,.T.);
#259=ORIENTED_EDGE('',*,*,#258,.T.);
#260=EDGE_LOOP('',(#257,#259));
#261=FACE_OUTER_BOUND('',#260,.F.);
#262=ORIENTED_EDGE('',*,*,#231,.F.);
#263=ORIENTED_EDGE('',*,*,#245,.F.);
#264=EDGE_LOOP('',(#262,#263));
#265=FACE_BOUND('',#264,.F.);
#266=ADVANCED_FACE('',(#261,#265),#255,.F.);
#267=CARTESIAN_POINT('',(0.E0,2.125984251969E-1,0.E0));
#268=DIRECTION('',(0.E0,1.E0,0.E0));
#269=DIRECTION('',(0.E0,0.E0,-1.E0));
#270=AXIS2_PLACEMENT_3D('',#267,#268,#269);
#271=CYLINDRICAL_SURFACE('',#270,4.330708661417E-1);
#272=ORIENTED_EDGE('',*,*,#144,.T.);
#274=ORIENTED_EDGE('',*,*,#273,.F.);
#275=ORIENTED_EDGE('',*,*,#256,.F.);
#277=ORIENTED_EDGE('',*,*,#276,.T.);
#278=EDGE_LOOP('',(#272,#274,#275,#277));
#279=FACE_OUTER_BOUND('',#278,.F.);
#280=ADVANCED_FACE('',(#279),#271,.F.);
#281=CARTESIAN_POINT('',(0.E0,2.125984251969E-1,0.E0));
#282=DIRECTION('',(0.E0,1.E0,0.E0));
#283=DIRECTION('',(0.E0,0.E0,-1.E0));
#284=AXIS2_PLACEMENT_3D('',#281,#282,#283);
#285=CYLINDRICAL_SURFACE('',#284,4.330708661417E-1);
#286=ORIENTED_EDGE('',*,*,#146,.T.);
#287=ORIENTED_EDGE('',*,*,#276,.F.);
#288=ORIENTED_EDGE('',*,*,#258,.F.);
#289=ORIENTED_EDGE('',*,*,#273,.T.);
#290=EDGE_LOOP('',(#286,#287,#288,#289));
#291=FACE_OUTER_BOUND('',#290,.F.);
#292=ADVANCED_FACE('',(#291),#285,.F.);
#293=CLOSED_SHELL('',(#150,#165,#178,#193,#206,#222,#237,#250,#266,#280,#292));
#294=MANIFOLD_SOLID_BREP('',#293);
#295=DIMENSIONAL_EXPONENTS(1.E0,0.E0,0.E0,0.E0,0.E0,0.E0,0.E0);
#296=(LENGTH_UNIT()NAMED_UNIT(*)SI_UNIT(.MILLI.,.METRE.));
#297=LENGTH_MEASURE_WITH_UNIT(LENGTH_MEASURE(2.54E1),#296);
#298=(CONVERSION_BASED_UNIT('INCH',#297)LENGTH_UNIT()NAMED_UNIT(#295));
#299=DIMENSIONAL_EXPONENTS(0.E0,0.E0,0.E0,0.E0,0.E0,0.E0,0.E0);
#300=(NAMED_UNIT(*)PLANE_ANGLE_UNIT()SI_UNIT($,.RADIAN.));
#301=PLANE_ANGLE_MEASURE_WITH_UNIT(PLANE_ANGLE_MEASURE(1.745329251994E-2),#300);
#302=(CONVERSION_BASED_UNIT('DEGREE',#301)NAMED_UNIT(#299)PLANE_ANGLE_UNIT());
#303=(NAMED_UNIT(*)SI_UNIT($,.STERADIAN.)SOLID_ANGLE_UNIT());
#304=UNCERTAINTY_MEASURE_WITH_UNIT(LENGTH_MEASURE(2.899096935035E-4),#298,
'closure',
'Maximum model space distance between geometric entities at asserted connectivities');
#305=(GEOMETRIC_REPRESENTATION_CONTEXT(3)GLOBAL_UNCERTAINTY_ASSIGNED_CONTEXT((
#304))GLOBAL_UNIT_ASSIGNED_CONTEXT((#298,#302,#303))REPRESENTATION_CONTEXT
('ID1','3'));
#307=APPLICATION_CONTEXT(
'CONFIGURATION CONTROLLED 3D DESIGNS OF MECHANICAL PARTS AND ASSEMBLIES');
#308=APPLICATION_PROTOCOL_DEFINITION('international standard',
'config_control_design',1994,#307);
#309=DESIGN_CONTEXT('',#307,'design');
#310=MECHANICAL_CONTEXT('',#307,'mechanical');
#311=PRODUCT('160556_SW','160556_SW','NOT SPECIFIED',(#310));
#312=PRODUCT_DEFINITION_FORMATION_WITH_SPECIFIED_SOURCE('','LAST_VERSION',#311,
.MADE.);
#316=PRODUCT_CATEGORY('part','');
#317=PRODUCT_RELATED_PRODUCT_CATEGORY('detail','',(#311));
#318=PRODUCT_CATEGORY_RELATIONSHIP('','',#316,#317);
#319=SECURITY_CLASSIFICATION_LEVEL('unclassified');
#320=SECURITY_CLASSIFICATION('','',#319);
#321=CC_DESIGN_SECURITY_CLASSIFICATION(#320,(#312));
#322=APPROVAL_STATUS('approved');
#323=APPROVAL(#322,'');
#324=CC_DESIGN_APPROVAL(#323,(#320,#312,#313));
#325=CALENDAR_DATE(111,4,10);
#326=COORDINATED_UNIVERSAL_TIME_OFFSET(5,0,.BEHIND.);
#327=LOCAL_TIME(12,17,2.2E1,#326);
#328=DATE_AND_TIME(#325,#327);
#329=APPROVAL_DATE_TIME(#328,#323);
#330=DATE_TIME_ROLE('creation_date');
#331=CC_DESIGN_DATE_AND_TIME_ASSIGNMENT(#328,#330,(#313));
#332=DATE_TIME_ROLE('classification_date');
#333=CC_DESIGN_DATE_AND_TIME_ASSIGNMENT(#328,#332,(#320));
#334=PERSON('UNSPECIFIED','UNSPECIFIED',$,$,$,$);
#335=ORGANIZATION('UNSPECIFIED','UNSPECIFIED','UNSPECIFIED');
#336=PERSON_AND_ORGANIZATION(#334,#335);
#337=APPROVAL_ROLE('approver');
#338=APPROVAL_PERSON_ORGANIZATION(#336,#323,#337);
#339=PERSON_AND_ORGANIZATION_ROLE('creator');
#340=CC_DESIGN_PERSON_AND_ORGANIZATION_ASSIGNMENT(#336,#339,(#312,#313));
#341=PERSON_AND_ORGANIZATION_ROLE('design_supplier');
#342=CC_DESIGN_PERSON_AND_ORGANIZATION_ASSIGNMENT(#336,#341,(#312));
#343=PERSON_AND_ORGANIZATION_ROLE('classification_officer');
#344=CC_DESIGN_PERSON_AND_ORGANIZATION_ASSIGNMENT(#336,#343,(#320));
#345=PERSON_AND_ORGANIZATION_ROLE('design_owner');
#346=CC_DESIGN_PERSON_AND_ORGANIZATION_ASSIGNMENT(#336,#345,(#311));
#5=CIRCLE('',#4,4.330708661417E-1);
#10=CIRCLE('',#9,4.330708661417E-1);
#19=CIRCLE('',#18,1.019685039370E0);
#28=CIRCLE('',#27,1.019685039370E0);
#33=CIRCLE('',#32,1.019685039370E0);
#38=CIRCLE('',#37,1.299212598425E-1);
#43=CIRCLE('',#42,1.019685039370E0);
#48=CIRCLE('',#47,1.299212598425E-1);
#53=CIRCLE('',#52,8.897637795276E-1);
#58=CIRCLE('',#57,8.897637795276E-1);
#63=CIRCLE('',#62,1.E-1);
#68=CIRCLE('',#67,1.E-1);
#81=CIRCLE('',#80,4.330708661417E-1);
#86=CIRCLE('',#85,4.330708661417E-1);
#91=CIRCLE('',#90,1.E-1);
#96=CIRCLE('',#95,1.E-1);
#138=EDGE_CURVE('',#107,#113,#19,.T.);
#140=EDGE_CURVE('',#107,#113,#28,.T.);
#144=EDGE_CURVE('',#123,#124,#5,.T.);
#146=EDGE_CURVE('',#124,#123,#10,.T.);
#156=EDGE_CURVE('',#107,#108,#14,.T.);
#159=EDGE_CURVE('',#113,#114,#23,.T.);
#161=EDGE_CURVE('',#108,#114,#43,.T.);
#172=EDGE_CURVE('',#108,#114,#33,.T.);
#184=EDGE_CURVE('',#108,#110,#38,.T.);
#186=EDGE_CURVE('',#110,#116,#58,.T.);
#188=EDGE_CURVE('',#114,#116,#48,.T.);
#202=EDGE_CURVE('',#110,#116,#53,.T.);
#216=EDGE_CURVE('',#127,#128,#63,.T.);
#218=EDGE_CURVE('',#128,#127,#68,.T.);
#229=EDGE_CURVE('',#127,#131,#72,.T.);
#231=EDGE_CURVE('',#131,#132,#91,.T.);
#233=EDGE_CURVE('',#128,#132,#76,.T.);
#245=EDGE_CURVE('',#132,#131,#96,.T.);
#256=EDGE_CURVE('',#119,#120,#81,.T.);
#258=EDGE_CURVE('',#120,#119,#86,.T.);
#273=EDGE_CURVE('',#120,#124,#104,.T.);
#276=EDGE_CURVE('',#119,#123,#100,.T.);
#306=ADVANCED_BREP_SHAPE_REPRESENTATION('',(#294),#305);
#313=PRODUCT_DEFINITION('design','',#312,#309);
#314=PRODUCT_DEFINITION_SHAPE('','SHAPE FOR 160556_SW.',#313);
#315=SHAPE_DEFINITION_REPRESENTATION(#314,#306);
ENDSEC;
END-ISO-10303-21;
