 PTC IGES file: 158530.igs                                              S      1
1H,,1H;,9H158530_SW,10H158530.igs,                                      G      1
49HPro/ENGINEER by Parametric Technology Corporation,7H2009141,32,38,7, G      2
38,15,9H158530_SW,1.,1,4HINCH,32768,0.5,15H20111006.141804,0.00071926,  G      3
7.19289,13Hbanengservice,7HUnknown,10,0,15H20111006.141804;             G      4
     314       1       1       1       0       0       0       001000200D      1
     314       0       4       1       0                   COLOR       1D      2
     314       2       1       1       0       0       0       001000200D      3
     314       0       1       1       0                   COLOR       2D      4
     314       3       1       1       0       0       0       001000200D      5
     314       0       1       1       0                   COLOR       3D      6
     314       4       1       1       0       0       0       001000200D      7
     314       0       1       1       0                   COLOR       4D      8
     314       5       1       1       0       0       0       001000200D      9
     314       0       8       1       0                   COLOR       5D     10
     314       6       1       1       0       0       0       001000200D     11
     314       0       8       1       0                   COLOR       6D     12
     314       7       1       1       0       0       0       001000200D     13
     314       0       5       1       0                   COLOR       7D     14
     314       8       1       1       0       0       0       001000200D     15
     314       0       8       1       0                   COLOR       8D     16
     110       9       1       1       0       0       0       001010000D     17
     110       0       0       2       0                    LINE       1D     18
     110      11       1       1       0       0       0       001010000D     19
     110       0       0       2       0                    LINE       2D     20
     110      13       1       1       0       0       0       001010000D     21
     110       0       0       2       0                    LINE       3D     22
     110      15       1       1       0       0       0       001010000D     23
     110       0       0       2       0                    LINE       4D     24
     110      17       1       1       0       0       0       001010000D     25
     110       0       0       2       0                    LINE       5D     26
     110      19       1       1       0       0       0       001010000D     27
     110       0       0       2       0                    LINE       6D     28
     110      21       1       1       0       0       0       001010000D     29
     110       0       0       2       0                    LINE       7D     30
     110      23       1       1       0       0       0       001010000D     31
     110       0       0       2       0                    LINE       8D     32
     110      25       1       1       0       0       0       001010000D     33
     110       0       0       2       0                    LINE       9D     34
     110      27       1       1       0       0       0       001010000D     35
     110       0       0       2       0                    LINE      10D     36
     110      29       1       1       0       0       0       001010000D     37
     110       0       0       2       0                    LINE      11D     38
     110      31       1       1       0       0       0       001010000D     39
     110       0       0       2       0                    LINE      12D     40
     110      33       1       1       0       0       0       001010000D     41
     110       0       0       2       0                    LINE      13D     42
     110      35       1       1       0       0       0       001010000D     43
     110       0       0       2       0                    LINE      14D     44
     110      37       1       1       0       0       0       001010000D     45
     110       0       0       2       0                    LINE      15D     46
     110      39       1       1       0       0       0       001010000D     47
     110       0       0       2       0                    LINE      16D     48
     110      41       1       1       0       0       0       001010000D     49
     110       0       0       2       0                    LINE      17D     50
     110      43       1       1       0       0       0       001010000D     51
     110       0       0       2       0                    LINE      18D     52
     110      45       1       1       0       0       0       001010000D     53
     110       0       0       2       0                    LINE      19D     54
     110      47       1       1       0       0       0       001010000D     55
     110       0       0       2       0                    LINE      20D     56
     110      49       1       1       0       0       0       001010000D     57
     110       0       0       2       0                    LINE      21D     58
     110      51       1       1       0       0       0       001010000D     59
     110       0       0       2       0                    LINE      22D     60
     110      53       1       1       0       0       0       001010000D     61
     110       0       0       2       0                    LINE      23D     62
     110      55       1       1       0       0       0       001010000D     63
     110       0       0       2       0                    LINE      24D     64
     502      57       1       1       0       0       0       001010000D     65
     502       0       0      16       1                  VERTEX       1D     66
     504      73       1       1       0       0       0       000010001D     67
     504       0       0       6       1                    EDGE       1D     68
     128      79       1       1       0       0       0       001010000D     69
     128       0       0       9       0                  SPLSRF       1D     70
     508      88       1       1       0       0       0       001010000D     71
     508       0       0       1       1                EDGELOOP       1D     72
     510      89       1       1       0       0       0       000010000D     73
     510       0       0       1       1                    FACE       1D     74
     128      90       1       1       0       0       0       001010000D     75
     128       0       0       9       0                  SPLSRF       2D     76
     508      99       1       1       0       0       0       001010000D     77
     508       0       0       1       1                EDGELOOP       2D     78
     510     100       1       1       0       0       0       000010000D     79
     510       0       0       1       1                    FACE       2D     80
     128     101       1       1       0       0       0       001010000D     81
     128       0       0       9       0                  SPLSRF       3D     82
     508     110       1       1       0       0       0       001010000D     83
     508       0       0       1       1                EDGELOOP       3D     84
     510     111       1       1       0       0       0       000010000D     85
     510       0       0       1       1                    FACE       3D     86
     128     112       1       1       0       0       0       001010000D     87
     128       0       0       9       0                  SPLSRF       4D     88
     508     121       1       1       0       0       0       001010000D     89
     508       0       0       1       1                EDGELOOP       4D     90
     510     122       1       1       0       0       0       000010000D     91
     510       0       0       1       1                    FACE       4D     92
     128     123       1       1       0       0       0       001010000D     93
     128       0       0       9       0                  SPLSRF       5D     94
     508     132       1       1       0       0       0       001010000D     95
     508       0       0       1       1                EDGELOOP       5D     96
     510     133       1       1       0       0       0       000010000D     97
     510       0       0       1       1                    FACE       5D     98
     128     134       1       1       0       0       0       001010000D     99
     128       0       0       9       0                  SPLSRF       6D    100
     508     143       1       1       0       0       0       001010000D    101
     508       0       0       1       1                EDGELOOP       6D    102
     508     144       1       1       0       0       0       001010000D    103
     508       0       0       1       1                EDGELOOP       7D    104
     510     145       1       1       0       0       0       000010000D    105
     510       0       0       1       1                    FACE       6D    106
     128     146       1       1       0       0       0       001010000D    107
     128       0       0       9       0                  SPLSRF       7D    108
     508     155       1       1       0       0       0       001010000D    109
     508       0       0       1       1                EDGELOOP       8D    110
     510     156       1       1       0       0       0       000010000D    111
     510       0       0       1       1                    FACE       7D    112
     128     157       1       1       0       0       0       001010000D    113
     128       0       0       9       0                  SPLSRF       8D    114
     508     166       1       1       0       0       0       001010000D    115
     508       0       0       1       1                EDGELOOP       9D    116
     510     167       1       1       0       0       0       000010000D    117
     510       0       0       1       1                    FACE       8D    118
     128     168       1       1       0       0       0       001010000D    119
     128       0       0       9       0                  SPLSRF       9D    120
     508     177       1       1       0       0       0       001010000D    121
     508       0       0       1       1                EDGELOOP      10D    122
     510     178       1       1       0       0       0       000010000D    123
     510       0       0       1       1                    FACE       9D    124
     128     179       1       1       0       0       0       001010000D    125
     128       0       0       9       0                  SPLSRF      10D    126
     508     188       1       1       0       0       0       001010000D    127
     508       0       0       1       1                EDGELOOP      11D    128
     510     189       1       1       0       0       0       000010000D    129
     510       0       0       1       1                    FACE      10D    130
     128     190       1       1       0       0       0       001010000D    131
     128       0       8       9       0                  SPLSRF      11D    132
     508     199       1       1       0       0       0       001010000D    133
     508       0       0       1       1                EDGELOOP      12D    134
     510     200       1       1       0       0       0       000010000D    135
     510       0       8       1       1                    FACE      11D    136
     514     201       1       1       0       0       0       000010000D    137
     514       0       0       2       1                   SHELL       1D    138
     186     203       1       1       0       0       0       000000000D    139
     186       0       0       1       0                    MSBR       1D    140
314,1.1D0,1.2D0,1D2;                                                   1P      1
314,1.1D1,1.1D1,1.1D1;                                                 3P      2
314,3.92D1,1.2D0,1.2D0;                                                5P      3
314,4.1D1,0D0,2.2D1;                                                   7P      4
314,8.784D1,9.49D1,1D2;                                                9P      5
314,9.6D1,9.6D1,9.6D1;                                                11P      6
314,9.8D1,6.27D1,0D0;                                                 13P      7
314,1D2,1D2,9.49D1;                                                   15P      8
110,-3.740157480315D-1,3.248031496063D0,-7.480314960630D-2,           17P      9
-3.740157480315D-1,-3.248031496063D0,-7.480314960630D-2;              17P     10
110,-3.740157480315D-1,-3.248031496063D0,-7.480314960630D-2,          19P     11
3.740157480315D-1,-3.248031496063D0,-7.480314960630D-2;               19P     12
110,3.740157480315D-1,-3.248031496063D0,-7.480314960630D-2,           21P     13
3.740157480315D-1,3.248031496063D0,-7.480314960630D-2;                21P     14
110,3.740157480315D-1,3.248031496063D0,-7.480314960630D-2,            23P     15
-3.740157480315D-1,3.248031496063D0,-7.480314960630D-2;               23P     16
110,-3.740157480315D-1,3.248031496063D0,-7.480314960630D-2,           25P     17
-3.740157480315D-1,3.248031496063D0,7.480314960630D-2;                25P     18
110,3.740157480315D-1,3.248031496063D0,-7.480314960630D-2,            27P     19
3.740157480315D-1,3.248031496063D0,7.480314960630D-2;                 27P     20
110,3.740157480315D-1,-3.248031496063D0,-7.480314960630D-2,           29P     21
3.740157480315D-1,-3.248031496063D0,7.480314960630D-2;                29P     22
110,-3.740157480315D-1,-3.248031496063D0,-7.480314960630D-2,          31P     23
-3.740157480315D-1,-3.248031496063D0,7.480314960630D-2;               31P     24
110,-3.740157480315D-1,3.248031496063D0,7.480314960630D-2,            33P     25
-3.740157480315D-1,-3.248031496063D0,7.480314960630D-2;               33P     26
110,3.740157480315D-1,3.248031496063D0,7.480314960630D-2,             35P     27
-3.740157480315D-1,3.248031496063D0,7.480314960630D-2;                35P     28
110,3.740157480315D-1,-3.248031496063D0,7.480314960630D-2,            37P     29
3.740157480315D-1,3.248031496063D0,7.480314960630D-2;                 37P     30
110,-3.740157480315D-1,-3.248031496063D0,7.480314960630D-2,           39P     31
3.740157480315D-1,-3.248031496063D0,7.480314960630D-2;                39P     32
110,3.444881889764D-1,3.218503937008D0,7.480314960630D-2,             41P     33
-3.444881889764D-1,3.218503937008D0,7.480314960630D-2;                41P     34
110,-3.444881889764D-1,3.218503937008D0,7.480314960630D-2,            43P     35
-3.444881889764D-1,-3.218503937008D0,7.480314960630D-2;               43P     36
110,-3.444881889764D-1,-3.218503937008D0,7.480314960630D-2,           45P     37
3.444881889764D-1,-3.218503937008D0,7.480314960630D-2;                45P     38
110,3.444881889764D-1,-3.218503937008D0,7.480314960630D-2,            47P     39
3.444881889764D-1,3.218503937008D0,7.480314960630D-2;                 47P     40
110,3.444881889764D-1,3.218503937008D0,7.480314960630D-2,             49P     41
3.444881889764D-1,3.218503937008D0,7.334645669291D-2;                 49P     42
110,3.444881889764D-1,-3.218503937008D0,7.480314960630D-2,            51P     43
3.444881889764D-1,-3.218503937008D0,7.334645669291D-2;                51P     44
110,-3.444881889764D-1,-3.218503937008D0,7.480314960630D-2,           53P     45
-3.444881889764D-1,-3.218503937008D0,7.334645669291D-2;               53P     46
110,-3.444881889764D-1,3.218503937008D0,7.480314960630D-2,            55P     47
-3.444881889764D-1,3.218503937008D0,7.334645669291D-2;                55P     48
110,3.444881889764D-1,3.218503937008D0,7.334645669291D-2,             57P     49
-3.444881889764D-1,3.218503937008D0,7.334645669291D-2;                57P     50
110,3.444881889764D-1,-3.218503937008D0,7.334645669291D-2,            59P     51
3.444881889764D-1,3.218503937008D0,7.334645669291D-2;                 59P     52
110,-3.444881889764D-1,-3.218503937008D0,7.334645669291D-2,           61P     53
3.444881889764D-1,-3.218503937008D0,7.334645669291D-2;                61P     54
110,-3.444881889764D-1,3.218503937008D0,7.334645669291D-2,            63P     55
-3.444881889764D-1,-3.218503937008D0,7.334645669291D-2;               63P     56
502,16,-3.740157480315D-1,3.248031496063D0,-7.480314960630D-2,        65P     57
-3.740157480315D-1,-3.248031496063D0,-7.480314960630D-2,              65P     58
3.740157480315D-1,-3.248031496063D0,-7.480314960630D-2,               65P     59
3.740157480315D-1,3.248031496063D0,-7.480314960630D-2,                65P     60
-3.740157480315D-1,3.248031496063D0,7.480314960630D-2,                65P     61
-3.740157480315D-1,-3.248031496063D0,7.480314960630D-2,               65P     62
3.740157480315D-1,-3.248031496063D0,7.480314960630D-2,                65P     63
3.740157480315D-1,3.248031496063D0,7.480314960630D-2,                 65P     64
3.444881889764D-1,3.218503937008D0,7.334645669291D-2,                 65P     65
-3.444881889764D-1,3.218503937008D0,7.334645669291D-2,                65P     66
-3.444881889764D-1,-3.218503937008D0,7.334645669291D-2,               65P     67
3.444881889764D-1,-3.218503937008D0,7.334645669291D-2,                65P     68
3.444881889764D-1,3.218503937008D0,7.480314960630D-2,                 65P     69
-3.444881889764D-1,3.218503937008D0,7.480314960630D-2,                65P     70
-3.444881889764D-1,-3.218503937008D0,7.480314960630D-2,               65P     71
3.444881889764D-1,-3.218503937008D0,7.480314960630D-2;                65P     72
504,24,17,65,1,65,2,19,65,2,65,3,21,65,3,65,4,23,65,4,65,1,33,        67P     73
65,5,65,6,39,65,6,65,7,37,65,7,65,8,35,65,8,65,5,25,65,1,65,5,        67P     74
31,65,2,65,6,29,65,3,65,7,27,65,4,65,8,57,65,9,65,10,63,65,10,        67P     75
65,11,61,65,11,65,12,59,65,12,65,9,41,65,13,65,14,43,65,14,65,        67P     76
15,45,65,15,65,16,47,65,16,65,13,49,65,13,65,9,55,65,14,65,10,        67P     77
53,65,15,65,11,51,65,16,65,12;                                        67P     78
128,1,1,1,1,0,0,1,0,0,-3.889763779528D-1,-3.889763779528D-1,          69P     79
3.889763779528D-1,3.889763779528D-1,-3.377952755906D0,                69P     80
-3.377952755906D0,3.377952755906D0,3.377952755906D0,1D0,1D0,1D0,      69P     81
1D0,-3.889763779528D-1,-3.377952755906D0,-7.480314960630D-2,          69P     82
3.889763779528D-1,-3.377952755906D0,-7.480314960630D-2,               69P     83
-3.889763779528D-1,3.377952755906D0,-7.480314960630D-2,               69P     84
3.889763779528D-1,3.377952755906D0,-7.480314960630D-2,                69P     85
-3.889763779528D-1,3.889763779528D-1,-3.377952755906D0,               69P     86
3.377952755906D0;                                                     69P     87
508,4,0,67,1,1,0,0,67,2,1,0,0,67,3,1,0,0,67,4,1,0;                    71P     88
510,69,1,0,71;                                                        73P     89
128,1,1,1,1,0,0,1,0,0,-1.299212598425D-1,-1.299212598425D-1,          75P     90
6.625984251969D0,6.625984251969D0,-8.631466325279D-3,                 75P     91
-8.631466325279D-3,1.582377655379D-1,1.582377655379D-1,1D0,1D0,       75P     92
1D0,1D0,-3.740157480315D-1,3.377952755906D0,-8.343461593158D-2,       75P     93
-3.740157480315D-1,-3.377952755906D0,-8.343461593158D-2,              75P     94
-3.740157480315D-1,3.377952755906D0,8.343461593158D-2,                75P     95
-3.740157480315D-1,-3.377952755906D0,8.343461593158D-2,               75P     96
-1.299212598425D-1,6.625984251969D0,-8.631466325279D-3,               75P     97
1.582377655379D-1;                                                    75P     98
508,4,0,67,1,0,0,0,67,9,1,0,0,67,5,1,0,0,67,10,0,0;                   77P     99
510,75,1,0,77;                                                        79P    100
128,1,1,1,1,0,0,1,0,0,-1.496062992126D-2,-1.496062992126D-2,          81P    101
7.629921259843D-1,7.629921259843D-1,-8.631466325279D-3,               81P    102
-8.631466325279D-3,1.582377655379D-1,1.582377655379D-1,1D0,1D0,       81P    103
1D0,1D0,3.889763779528D-1,3.248031496063D0,-8.343461593158D-2,        81P    104
-3.889763779528D-1,3.248031496063D0,-8.343461593158D-2,               81P    105
3.889763779528D-1,3.248031496063D0,8.343461593158D-2,                 81P    106
-3.889763779528D-1,3.248031496063D0,8.343461593158D-2,                81P    107
-1.496062992126D-2,7.629921259843D-1,-8.631466325279D-3,              81P    108
1.582377655379D-1;                                                    81P    109
508,4,0,67,4,0,0,0,67,12,1,0,0,67,8,1,0,0,67,9,0,0;                   83P    110
510,81,1,0,83;                                                        85P    111
128,1,1,1,1,0,0,1,0,0,-1.299212598425D-1,-1.299212598425D-1,          87P    112
6.625984251969D0,6.625984251969D0,-8.631466325279D-3,                 87P    113
-8.631466325279D-3,1.582377655379D-1,1.582377655379D-1,1D0,1D0,       87P    114
1D0,1D0,3.740157480315D-1,-3.377952755906D0,-8.343461593158D-2,       87P    115
3.740157480315D-1,3.377952755906D0,-8.343461593158D-2,                87P    116
3.740157480315D-1,-3.377952755906D0,8.343461593158D-2,                87P    117
3.740157480315D-1,3.377952755906D0,8.343461593158D-2,                 87P    118
-1.299212598425D-1,6.625984251969D0,-8.631466325279D-3,               87P    119
1.582377655379D-1;                                                    87P    120
508,4,0,67,3,0,0,0,67,11,1,0,0,67,7,1,0,0,67,12,0,0;                  89P    121
510,87,1,0,89;                                                        91P    122
128,1,1,1,1,0,0,1,0,0,-1.496062992126D-2,-1.496062992126D-2,          93P    123
7.629921259843D-1,7.629921259843D-1,-8.631466325279D-3,               93P    124
-8.631466325279D-3,1.582377655379D-1,1.582377655379D-1,1D0,1D0,       93P    125
1D0,1D0,-3.889763779528D-1,-3.248031496063D0,-8.343461593158D-2,      93P    126
3.889763779528D-1,-3.248031496063D0,-8.343461593158D-2,               93P    127
-3.889763779528D-1,-3.248031496063D0,8.343461593158D-2,               93P    128
3.889763779528D-1,-3.248031496063D0,8.343461593158D-2,                93P    129
-1.496062992126D-2,7.629921259843D-1,-8.631466325279D-3,              93P    130
1.582377655379D-1;                                                    93P    131
508,4,0,67,2,0,0,0,67,10,1,0,0,67,6,1,0,0,67,11,0,0;                  95P    132
510,93,1,0,95;                                                        97P    133
128,1,1,1,1,0,0,1,0,0,-3.889763779528D-1,-3.889763779528D-1,          99P    134
3.889763779528D-1,3.889763779528D-1,-3.377952755906D0,                99P    135
-3.377952755906D0,3.377952755906D0,3.377952755906D0,1D0,1D0,1D0,      99P    136
1D0,-3.889763779528D-1,-3.377952755906D0,7.480314960630D-2,           99P    137
3.889763779528D-1,-3.377952755906D0,7.480314960630D-2,                99P    138
-3.889763779528D-1,3.377952755906D0,7.480314960630D-2,                99P    139
3.889763779528D-1,3.377952755906D0,7.480314960630D-2,                 99P    140
-3.889763779528D-1,3.889763779528D-1,-3.377952755906D0,               99P    141
3.377952755906D0;                                                     99P    142
508,4,0,67,5,0,0,0,67,8,0,0,0,67,7,0,0,0,67,6,0,0;                   101P    143
508,4,0,67,17,1,0,0,67,18,1,0,0,67,19,1,0,0,67,20,1,0;               103P    144
510,99,2,0,101,103;                                                  105P    145
128,1,1,1,1,0,0,1,0,0,-1.377952755906D-2,-1.377952755906D-2,         107P    146
7.027559055118D-1,7.027559055118D-1,-1.485826771654D-3,              107P    147
-1.485826771654D-3,2.913385826772D-5,2.913385826772D-5,1D0,1D0,      107P    148
1D0,1D0,3.582677165354D-1,3.218503937008D0,7.331732283465D-2,        107P    149
-3.582677165354D-1,3.218503937008D0,7.331732283465D-2,               107P    150
3.582677165354D-1,3.218503937008D0,7.483228346457D-2,                107P    151
-3.582677165354D-1,3.218503937008D0,7.483228346457D-2,               107P    152
-1.377952755906D-2,7.027559055118D-1,-1.485826771654D-3,             107P    153
2.913385826772D-5;                                                   107P    154
508,4,0,67,17,0,0,0,67,21,1,0,0,67,13,1,0,0,67,22,0,0;               109P    155
510,107,1,0,109;                                                     111P    156
128,1,1,1,1,0,0,1,0,0,-1.287401574803D-1,-1.287401574803D-1,         113P    157
6.565748031496D0,6.565748031496D0,-1.485826771654D-3,                113P    158
-1.485826771654D-3,2.913385826772D-5,2.913385826772D-5,1D0,1D0,      113P    159
1D0,1D0,3.444881889764D-1,-3.347244094488D0,7.331732283465D-2,       113P    160
3.444881889764D-1,3.347244094488D0,7.331732283465D-2,                113P    161
3.444881889764D-1,-3.347244094488D0,7.483228346457D-2,               113P    162
3.444881889764D-1,3.347244094488D0,7.483228346457D-2,                113P    163
-1.287401574803D-1,6.565748031496D0,-1.485826771654D-3,              113P    164
2.913385826772D-5;                                                   113P    165
508,4,0,67,20,0,0,0,67,24,1,0,0,67,16,1,0,0,67,21,0,0;               115P    166
510,113,1,0,115;                                                     117P    167
128,1,1,1,1,0,0,1,0,0,-1.377952755906D-2,-1.377952755906D-2,         119P    168
7.027559055118D-1,7.027559055118D-1,-1.485826771654D-3,              119P    169
-1.485826771654D-3,2.913385826772D-5,2.913385826772D-5,1D0,1D0,      119P    170
1D0,1D0,-3.582677165354D-1,-3.218503937008D0,7.331732283465D-2,      119P    171
3.582677165354D-1,-3.218503937008D0,7.331732283465D-2,               119P    172
-3.582677165354D-1,-3.218503937008D0,7.483228346457D-2,              119P    173
3.582677165354D-1,-3.218503937008D0,7.483228346457D-2,               119P    174
-1.377952755906D-2,7.027559055118D-1,-1.485826771654D-3,             119P    175
2.913385826772D-5;                                                   119P    176
508,4,0,67,19,0,0,0,67,23,1,0,0,67,15,1,0,0,67,24,0,0;               121P    177
510,119,1,0,121;                                                     123P    178
128,1,1,1,1,0,0,1,0,0,-1.287401574803D-1,-1.287401574803D-1,         125P    179
6.565748031496D0,6.565748031496D0,-1.485826771654D-3,                125P    180
-1.485826771654D-3,2.913385826772D-5,2.913385826772D-5,1D0,1D0,      125P    181
1D0,1D0,-3.444881889764D-1,3.347244094488D0,7.331732283465D-2,       125P    182
-3.444881889764D-1,-3.347244094488D0,7.331732283465D-2,              125P    183
-3.444881889764D-1,3.347244094488D0,7.483228346457D-2,               125P    184
-3.444881889764D-1,-3.347244094488D0,7.483228346457D-2,              125P    185
-1.287401574803D-1,6.565748031496D0,-1.485826771654D-3,              125P    186
2.913385826772D-5;                                                   125P    187
508,4,0,67,18,0,0,0,67,22,1,0,0,67,14,1,0,0,67,23,0,0;               127P    188
510,125,1,0,127;                                                     129P    189
128,1,1,1,1,0,0,1,0,0,-3.582677165354D-1,-3.582677165354D-1,         131P    190
3.582677165354D-1,3.582677165354D-1,-3.347244094488D0,               131P    191
-3.347244094488D0,3.347244094488D0,3.347244094488D0,1D0,1D0,1D0,     131P    192
1D0,-3.582677165354D-1,-3.347244094488D0,7.334645669291D-2,          131P    193
3.582677165354D-1,-3.347244094488D0,7.334645669291D-2,               131P    194
-3.582677165354D-1,3.347244094488D0,7.334645669291D-2,               131P    195
3.582677165354D-1,3.347244094488D0,7.334645669291D-2,                131P    196
-3.582677165354D-1,3.582677165354D-1,-3.347244094488D0,              131P    197
3.347244094488D0;                                                    131P    198
508,4,0,67,13,0,0,0,67,16,0,0,0,67,15,0,0,0,67,14,0,0;               133P    199
510,131,1,0,133;                                                     135P    200
514,11,73,0,79,1,85,1,91,1,97,1,105,1,111,0,117,0,123,0,129,0,       137P    201
135,1;                                                               137P    202
186,137,1,0;                                                         139P    203
S      1G      4D    140P    203                                        T      1
