ISO-10303-21;
HEADER;
FILE_DESCRIPTION((''),'2;1');
FILE_NAME('158526_SW','2011-10-06T',('banengservice'),('BANNER ENGINEERING'),
'PRO/ENGINEER BY PARAMETRIC TECHNOLOGY CORPORATION, 2009141',
'PRO/ENGINEER BY PARAMETRIC TECHNOLOGY CORPORATION, 2009141','');
FILE_SCHEMA(('CONFIG_CONTROL_DESIGN'));
ENDSEC;
DATA;
#1=CARTESIAN_POINT('',(0.E0,0.E0,0.E0));
#2=DIRECTION('',(0.E0,0.E0,1.E0));
#3=DIRECTION('',(1.E0,0.E0,0.E0));
#4=AXIS2_PLACEMENT_3D('',#1,#2,#3);
#6=CARTESIAN_POINT('',(0.E0,0.E0,0.E0));
#7=DIRECTION('',(0.E0,0.E0,1.E0));
#8=DIRECTION('',(-1.E0,0.E0,0.E0));
#9=AXIS2_PLACEMENT_3D('',#6,#7,#8);
#11=CARTESIAN_POINT('',(0.E0,0.E0,0.E0));
#12=DIRECTION('',(0.E0,0.E0,1.E0));
#13=DIRECTION('',(1.E0,0.E0,0.E0));
#14=AXIS2_PLACEMENT_3D('',#11,#12,#13);
#16=CARTESIAN_POINT('',(0.E0,0.E0,0.E0));
#17=DIRECTION('',(0.E0,0.E0,1.E0));
#18=DIRECTION('',(-1.E0,0.E0,0.E0));
#19=AXIS2_PLACEMENT_3D('',#16,#17,#18);
#21=CARTESIAN_POINT('',(0.E0,0.E0,1.934E-1));
#22=DIRECTION('',(0.E0,0.E0,1.E0));
#23=DIRECTION('',(1.E0,0.E0,0.E0));
#24=AXIS2_PLACEMENT_3D('',#21,#22,#23);
#26=DIRECTION('',(0.E0,0.E0,1.E0));
#27=VECTOR('',#26,1.934E-1);
#28=CARTESIAN_POINT('',(1.6535E0,0.E0,0.E0));
#29=LINE('',#28,#27);
#30=CARTESIAN_POINT('',(0.E0,0.E0,1.934E-1));
#31=DIRECTION('',(0.E0,0.E0,-1.E0));
#32=DIRECTION('',(1.E0,0.E0,0.E0));
#33=AXIS2_PLACEMENT_3D('',#30,#31,#32);
#35=CARTESIAN_POINT('',(0.E0,0.E0,1.934E-1));
#36=DIRECTION('',(0.E0,0.E0,-1.E0));
#37=DIRECTION('',(-1.E0,0.E0,0.E0));
#38=AXIS2_PLACEMENT_3D('',#35,#36,#37);
#40=CARTESIAN_POINT('',(0.E0,0.E0,1.934E-1));
#41=DIRECTION('',(0.E0,0.E0,1.E0));
#42=DIRECTION('',(-1.E0,0.E0,0.E0));
#43=AXIS2_PLACEMENT_3D('',#40,#41,#42);
#45=DIRECTION('',(0.E0,0.E0,1.E0));
#46=VECTOR('',#45,1.934E-1);
#47=CARTESIAN_POINT('',(-1.6535E0,0.E0,0.E0));
#48=LINE('',#47,#46);
#49=DIRECTION('',(0.E0,0.E0,-1.E0));
#50=VECTOR('',#49,9.4E-2);
#51=CARTESIAN_POINT('',(1.625E0,0.E0,2.874E-1));
#52=LINE('',#51,#50);
#53=CARTESIAN_POINT('',(0.E0,0.E0,2.874E-1));
#54=DIRECTION('',(0.E0,0.E0,1.E0));
#55=DIRECTION('',(-1.E0,0.E0,0.E0));
#56=AXIS2_PLACEMENT_3D('',#53,#54,#55);
#58=CARTESIAN_POINT('',(0.E0,0.E0,2.874E-1));
#59=DIRECTION('',(0.E0,0.E0,1.E0));
#60=DIRECTION('',(1.E0,0.E0,0.E0));
#61=AXIS2_PLACEMENT_3D('',#58,#59,#60);
#63=CARTESIAN_POINT('',(0.E0,0.E0,2.874E-1));
#64=DIRECTION('',(0.E0,0.E0,1.E0));
#65=DIRECTION('',(1.E0,0.E0,0.E0));
#66=AXIS2_PLACEMENT_3D('',#63,#64,#65);
#68=CARTESIAN_POINT('',(0.E0,0.E0,2.874E-1));
#69=DIRECTION('',(0.E0,0.E0,1.E0));
#70=DIRECTION('',(-1.E0,0.E0,0.E0));
#71=AXIS2_PLACEMENT_3D('',#68,#69,#70);
#73=DIRECTION('',(0.E0,0.E0,-1.E0));
#74=VECTOR('',#73,9.4E-2);
#75=CARTESIAN_POINT('',(-1.625E0,0.E0,2.874E-1));
#76=LINE('',#75,#74);
#77=DIRECTION('',(0.E0,0.E0,-1.E0));
#78=VECTOR('',#77,1.88E-1);
#79=CARTESIAN_POINT('',(8.858E-2,0.E0,2.874E-1));
#80=LINE('',#79,#78);
#81=DIRECTION('',(0.E0,0.E0,-1.E0));
#82=VECTOR('',#81,1.88E-1);
#83=CARTESIAN_POINT('',(-8.858E-2,0.E0,2.874E-1));
#84=LINE('',#83,#82);
#85=CARTESIAN_POINT('',(0.E0,0.E0,9.94E-2));
#86=DIRECTION('',(0.E0,0.E0,1.E0));
#87=DIRECTION('',(1.E0,0.E0,0.E0));
#88=AXIS2_PLACEMENT_3D('',#85,#86,#87);
#90=CARTESIAN_POINT('',(0.E0,0.E0,9.94E-2));
#91=DIRECTION('',(0.E0,0.E0,1.E0));
#92=DIRECTION('',(-1.E0,0.E0,0.E0));
#93=AXIS2_PLACEMENT_3D('',#90,#91,#92);
#95=CARTESIAN_POINT('',(0.E0,0.E0,9.94E-2));
#96=DIRECTION('',(0.E0,0.E0,1.E0));
#97=DIRECTION('',(1.E0,0.E0,0.E0));
#98=AXIS2_PLACEMENT_3D('',#95,#96,#97);
#100=CARTESIAN_POINT('',(0.E0,0.E0,9.94E-2));
#101=DIRECTION('',(0.E0,0.E0,1.E0));
#102=DIRECTION('',(-1.E0,0.E0,0.E0));
#103=AXIS2_PLACEMENT_3D('',#100,#101,#102);
#105=DIRECTION('',(0.E0,0.E0,-1.E0));
#106=VECTOR('',#105,9.94E-2);
#107=CARTESIAN_POINT('',(7.874E-2,0.E0,9.94E-2));
#108=LINE('',#107,#106);
#109=DIRECTION('',(0.E0,0.E0,-1.E0));
#110=VECTOR('',#109,9.94E-2);
#111=CARTESIAN_POINT('',(-7.874E-2,0.E0,9.94E-2));
#112=LINE('',#111,#110);
#113=CARTESIAN_POINT('',(1.6535E0,0.E0,0.E0));
#114=CARTESIAN_POINT('',(-1.6535E0,0.E0,0.E0));
#115=VERTEX_POINT('',#113);
#116=VERTEX_POINT('',#114);
#117=CARTESIAN_POINT('',(1.625E0,0.E0,1.934E-1));
#118=CARTESIAN_POINT('',(-1.625E0,0.E0,1.934E-1));
#119=VERTEX_POINT('',#117);
#120=VERTEX_POINT('',#118);
#121=CARTESIAN_POINT('',(-1.625E0,0.E0,2.874E-1));
#122=CARTESIAN_POINT('',(1.625E0,0.E0,2.874E-1));
#123=VERTEX_POINT('',#121);
#124=VERTEX_POINT('',#122);
#125=CARTESIAN_POINT('',(1.6535E0,0.E0,1.934E-1));
#126=CARTESIAN_POINT('',(-1.6535E0,0.E0,1.934E-1));
#127=VERTEX_POINT('',#125);
#128=VERTEX_POINT('',#126);
#129=CARTESIAN_POINT('',(8.858E-2,0.E0,9.94E-2));
#130=CARTESIAN_POINT('',(-8.858E-2,0.E0,9.94E-2));
#131=VERTEX_POINT('',#129);
#132=VERTEX_POINT('',#130);
#133=CARTESIAN_POINT('',(8.858E-2,0.E0,2.874E-1));
#134=CARTESIAN_POINT('',(-8.858E-2,0.E0,2.874E-1));
#135=VERTEX_POINT('',#133);
#136=VERTEX_POINT('',#134);
#137=CARTESIAN_POINT('',(7.874E-2,0.E0,0.E0));
#138=CARTESIAN_POINT('',(-7.874E-2,0.E0,0.E0));
#139=VERTEX_POINT('',#137);
#140=VERTEX_POINT('',#138);
#141=CARTESIAN_POINT('',(7.874E-2,0.E0,9.94E-2));
#142=CARTESIAN_POINT('',(-7.874E-2,0.E0,9.94E-2));
#143=VERTEX_POINT('',#141);
#144=VERTEX_POINT('',#142);
#145=CARTESIAN_POINT('',(0.E0,0.E0,0.E0));
#146=DIRECTION('',(0.E0,0.E0,1.E0));
#147=DIRECTION('',(1.E0,0.E0,0.E0));
#148=AXIS2_PLACEMENT_3D('',#145,#146,#147);
#149=PLANE('',#148);
#151=ORIENTED_EDGE('',*,*,#150,.T.);
#153=ORIENTED_EDGE('',*,*,#152,.T.);
#154=EDGE_LOOP('',(#151,#153));
#155=FACE_OUTER_BOUND('',#154,.F.);
#157=ORIENTED_EDGE('',*,*,#156,.F.);
#159=ORIENTED_EDGE('',*,*,#158,.F.);
#160=EDGE_LOOP('',(#157,#159));
#161=FACE_BOUND('',#160,.F.);
#162=ADVANCED_FACE('',(#155,#161),#149,.F.);
#163=CARTESIAN_POINT('',(0.E0,0.E0,0.E0));
#164=DIRECTION('',(0.E0,0.E0,1.E0));
#165=DIRECTION('',(1.E0,0.E0,0.E0));
#166=AXIS2_PLACEMENT_3D('',#163,#164,#165);
#167=CYLINDRICAL_SURFACE('',#166,1.6535E0);
#169=ORIENTED_EDGE('',*,*,#168,.T.);
#171=ORIENTED_EDGE('',*,*,#170,.F.);
#172=ORIENTED_EDGE('',*,*,#150,.F.);
#174=ORIENTED_EDGE('',*,*,#173,.T.);
#175=EDGE_LOOP('',(#169,#171,#172,#174));
#176=FACE_OUTER_BOUND('',#175,.F.);
#177=ADVANCED_FACE('',(#176),#167,.T.);
#178=CARTESIAN_POINT('',(0.E0,0.E0,1.934E-1));
#179=DIRECTION('',(0.E0,0.E0,1.E0));
#180=DIRECTION('',(1.E0,0.E0,0.E0));
#181=AXIS2_PLACEMENT_3D('',#178,#179,#180);
#182=PLANE('',#181);
#183=ORIENTED_EDGE('',*,*,#168,.F.);
#185=ORIENTED_EDGE('',*,*,#184,.F.);
#186=EDGE_LOOP('',(#183,#185));
#187=FACE_OUTER_BOUND('',#186,.F.);
#189=ORIENTED_EDGE('',*,*,#188,.F.);
#191=ORIENTED_EDGE('',*,*,#190,.F.);
#192=EDGE_LOOP('',(#189,#191));
#193=FACE_BOUND('',#192,.F.);
#194=ADVANCED_FACE('',(#187,#193),#182,.T.);
#195=CARTESIAN_POINT('',(0.E0,0.E0,0.E0));
#196=DIRECTION('',(0.E0,0.E0,1.E0));
#197=DIRECTION('',(1.E0,0.E0,0.E0));
#198=AXIS2_PLACEMENT_3D('',#195,#196,#197);
#199=CYLINDRICAL_SURFACE('',#198,1.6535E0);
#200=ORIENTED_EDGE('',*,*,#184,.T.);
#201=ORIENTED_EDGE('',*,*,#173,.F.);
#202=ORIENTED_EDGE('',*,*,#152,.F.);
#203=ORIENTED_EDGE('',*,*,#170,.T.);
#204=EDGE_LOOP('',(#200,#201,#202,#203));
#205=FACE_OUTER_BOUND('',#204,.F.);
#206=ADVANCED_FACE('',(#205),#199,.T.);
#207=CARTESIAN_POINT('',(0.E0,0.E0,2.874E-1));
#208=DIRECTION('',(0.E0,0.E0,1.E0));
#209=DIRECTION('',(1.E0,0.E0,0.E0));
#210=AXIS2_PLACEMENT_3D('',#207,#208,#209);
#211=CYLINDRICAL_SURFACE('',#210,1.625E0);
#213=ORIENTED_EDGE('',*,*,#212,.T.);
#215=ORIENTED_EDGE('',*,*,#214,.T.);
#216=ORIENTED_EDGE('',*,*,#188,.T.);
#218=ORIENTED_EDGE('',*,*,#217,.F.);
#219=EDGE_LOOP('',(#213,#215,#216,#218));
#220=FACE_OUTER_BOUND('',#219,.F.);
#221=ADVANCED_FACE('',(#220),#211,.T.);
#222=CARTESIAN_POINT('',(0.E0,0.E0,2.874E-1));
#223=DIRECTION('',(0.E0,0.E0,1.E0));
#224=DIRECTION('',(1.E0,0.E0,0.E0));
#225=AXIS2_PLACEMENT_3D('',#222,#223,#224);
#226=PLANE('',#225);
#227=ORIENTED_EDGE('',*,*,#212,.F.);
#229=ORIENTED_EDGE('',*,*,#228,.F.);
#230=EDGE_LOOP('',(#227,#229));
#231=FACE_OUTER_BOUND('',#230,.F.);
#233=ORIENTED_EDGE('',*,*,#232,.T.);
#235=ORIENTED_EDGE('',*,*,#234,.T.);
#236=EDGE_LOOP('',(#233,#235));
#237=FACE_BOUND('',#236,.F.);
#238=ADVANCED_FACE('',(#231,#237),#226,.T.);
#239=CARTESIAN_POINT('',(0.E0,0.E0,2.874E-1));
#240=DIRECTION('',(0.E0,0.E0,1.E0));
#241=DIRECTION('',(1.E0,0.E0,0.E0));
#242=AXIS2_PLACEMENT_3D('',#239,#240,#241);
#243=CYLINDRICAL_SURFACE('',#242,1.625E0);
#244=ORIENTED_EDGE('',*,*,#228,.T.);
#245=ORIENTED_EDGE('',*,*,#217,.T.);
#246=ORIENTED_EDGE('',*,*,#190,.T.);
#247=ORIENTED_EDGE('',*,*,#214,.F.);
#248=EDGE_LOOP('',(#244,#245,#246,#247));
#249=FACE_OUTER_BOUND('',#248,.F.);
#250=ADVANCED_FACE('',(#249),#243,.T.);
#251=CARTESIAN_POINT('',(0.E0,0.E0,2.874E-1));
#252=DIRECTION('',(0.E0,0.E0,1.E0));
#253=DIRECTION('',(1.E0,0.E0,0.E0));
#254=AXIS2_PLACEMENT_3D('',#251,#252,#253);
#255=CYLINDRICAL_SURFACE('',#254,8.858E-2);
#256=ORIENTED_EDGE('',*,*,#232,.F.);
#258=ORIENTED_EDGE('',*,*,#257,.T.);
#260=ORIENTED_EDGE('',*,*,#259,.T.);
#262=ORIENTED_EDGE('',*,*,#261,.F.);
#263=EDGE_LOOP('',(#256,#258,#260,#262));
#264=FACE_OUTER_BOUND('',#263,.F.);
#265=ADVANCED_FACE('',(#264),#255,.F.);
#266=CARTESIAN_POINT('',(0.E0,0.E0,2.874E-1));
#267=DIRECTION('',(0.E0,0.E0,1.E0));
#268=DIRECTION('',(1.E0,0.E0,0.E0));
#269=AXIS2_PLACEMENT_3D('',#266,#267,#268);
#270=CYLINDRICAL_SURFACE('',#269,8.858E-2);
#271=ORIENTED_EDGE('',*,*,#234,.F.);
#272=ORIENTED_EDGE('',*,*,#261,.T.);
#274=ORIENTED_EDGE('',*,*,#273,.T.);
#275=ORIENTED_EDGE('',*,*,#257,.F.);
#276=EDGE_LOOP('',(#271,#272,#274,#275));
#277=FACE_OUTER_BOUND('',#276,.F.);
#278=ADVANCED_FACE('',(#277),#270,.F.);
#279=CARTESIAN_POINT('',(0.E0,0.E0,9.94E-2));
#280=DIRECTION('',(0.E0,0.E0,1.E0));
#281=DIRECTION('',(1.E0,0.E0,0.E0));
#282=AXIS2_PLACEMENT_3D('',#279,#280,#281);
#283=PLANE('',#282);
#284=ORIENTED_EDGE('',*,*,#259,.F.);
#285=ORIENTED_EDGE('',*,*,#273,.F.);
#286=EDGE_LOOP('',(#284,#285));
#287=FACE_OUTER_BOUND('',#286,.F.);
#289=ORIENTED_EDGE('',*,*,#288,.T.);
#291=ORIENTED_EDGE('',*,*,#290,.T.);
#292=EDGE_LOOP('',(#289,#291));
#293=FACE_BOUND('',#292,.F.);
#294=ADVANCED_FACE('',(#287,#293),#283,.T.);
#295=CARTESIAN_POINT('',(0.E0,0.E0,9.94E-2));
#296=DIRECTION('',(0.E0,0.E0,1.E0));
#297=DIRECTION('',(1.E0,0.E0,0.E0));
#298=AXIS2_PLACEMENT_3D('',#295,#296,#297);
#299=CYLINDRICAL_SURFACE('',#298,7.874E-2);
#300=ORIENTED_EDGE('',*,*,#156,.T.);
#302=ORIENTED_EDGE('',*,*,#301,.F.);
#303=ORIENTED_EDGE('',*,*,#288,.F.);
#305=ORIENTED_EDGE('',*,*,#304,.T.);
#306=EDGE_LOOP('',(#300,#302,#303,#305));
#307=FACE_OUTER_BOUND('',#306,.F.);
#308=ADVANCED_FACE('',(#307),#299,.F.);
#309=CARTESIAN_POINT('',(0.E0,0.E0,9.94E-2));
#310=DIRECTION('',(0.E0,0.E0,1.E0));
#311=DIRECTION('',(1.E0,0.E0,0.E0));
#312=AXIS2_PLACEMENT_3D('',#309,#310,#311);
#313=CYLINDRICAL_SURFACE('',#312,7.874E-2);
#314=ORIENTED_EDGE('',*,*,#158,.T.);
#315=ORIENTED_EDGE('',*,*,#304,.F.);
#316=ORIENTED_EDGE('',*,*,#290,.F.);
#317=ORIENTED_EDGE('',*,*,#301,.T.);
#318=EDGE_LOOP('',(#314,#315,#316,#317));
#319=FACE_OUTER_BOUND('',#318,.F.);
#320=ADVANCED_FACE('',(#319),#313,.F.);
#321=CLOSED_SHELL('',(#162,#177,#194,#206,#221,#238,#250,#265,#278,#294,#308,
#320));
#322=MANIFOLD_SOLID_BREP('',#321);
#323=DIMENSIONAL_EXPONENTS(1.E0,0.E0,0.E0,0.E0,0.E0,0.E0,0.E0);
#324=(LENGTH_UNIT()NAMED_UNIT(*)SI_UNIT(.MILLI.,.METRE.));
#325=LENGTH_MEASURE_WITH_UNIT(LENGTH_MEASURE(2.54E1),#324);
#326=(CONVERSION_BASED_UNIT('INCH',#325)LENGTH_UNIT()NAMED_UNIT(#323));
#327=DIMENSIONAL_EXPONENTS(0.E0,0.E0,0.E0,0.E0,0.E0,0.E0,0.E0);
#328=(NAMED_UNIT(*)PLANE_ANGLE_UNIT()SI_UNIT($,.RADIAN.));
#329=PLANE_ANGLE_MEASURE_WITH_UNIT(PLANE_ANGLE_MEASURE(1.745329251994E-2),#328);
#330=(CONVERSION_BASED_UNIT('DEGREE',#329)NAMED_UNIT(#327)PLANE_ANGLE_UNIT());
#331=(NAMED_UNIT(*)SI_UNIT($,.STERADIAN.)SOLID_ANGLE_UNIT());
#332=UNCERTAINTY_MEASURE_WITH_UNIT(LENGTH_MEASURE(4.687047013620E-4),#326,
'closure',
'Maximum model space distance between geometric entities at asserted connectivities');
#333=(GEOMETRIC_REPRESENTATION_CONTEXT(3)GLOBAL_UNCERTAINTY_ASSIGNED_CONTEXT((
#332))GLOBAL_UNIT_ASSIGNED_CONTEXT((#326,#330,#331))REPRESENTATION_CONTEXT
('ID1','3'));
#335=APPLICATION_CONTEXT(
'CONFIGURATION CONTROLLED 3D DESIGNS OF MECHANICAL PARTS AND ASSEMBLIES');
#336=APPLICATION_PROTOCOL_DEFINITION('international standard',
'config_control_design',1994,#335);
#337=DESIGN_CONTEXT('',#335,'design');
#338=MECHANICAL_CONTEXT('',#335,'mechanical');
#339=PRODUCT('158526_SW','158526_SW','NOT SPECIFIED',(#338));
#340=PRODUCT_DEFINITION_FORMATION_WITH_SPECIFIED_SOURCE('','LAST_VERSION',#339,
.MADE.);
#344=PRODUCT_CATEGORY('part','');
#345=PRODUCT_RELATED_PRODUCT_CATEGORY('detail','',(#339));
#346=PRODUCT_CATEGORY_RELATIONSHIP('','',#344,#345);
#347=SECURITY_CLASSIFICATION_LEVEL('unclassified');
#348=SECURITY_CLASSIFICATION('','',#347);
#349=CC_DESIGN_SECURITY_CLASSIFICATION(#348,(#340));
#350=APPROVAL_STATUS('approved');
#351=APPROVAL(#350,'');
#352=CC_DESIGN_APPROVAL(#351,(#348,#340,#341));
#353=CALENDAR_DATE(111,6,10);
#354=COORDINATED_UNIVERSAL_TIME_OFFSET(5,0,.BEHIND.);
#355=LOCAL_TIME(14,16,5.E0,#354);
#356=DATE_AND_TIME(#353,#355);
#357=APPROVAL_DATE_TIME(#356,#351);
#358=DATE_TIME_ROLE('creation_date');
#359=CC_DESIGN_DATE_AND_TIME_ASSIGNMENT(#356,#358,(#341));
#360=DATE_TIME_ROLE('classification_date');
#361=CC_DESIGN_DATE_AND_TIME_ASSIGNMENT(#356,#360,(#348));
#362=PERSON('UNSPECIFIED','UNSPECIFIED',$,$,$,$);
#363=ORGANIZATION('UNSPECIFIED','UNSPECIFIED','UNSPECIFIED');
#364=PERSON_AND_ORGANIZATION(#362,#363);
#365=APPROVAL_ROLE('approver');
#366=APPROVAL_PERSON_ORGANIZATION(#364,#351,#365);
#367=PERSON_AND_ORGANIZATION_ROLE('creator');
#368=CC_DESIGN_PERSON_AND_ORGANIZATION_ASSIGNMENT(#364,#367,(#340,#341));
#369=PERSON_AND_ORGANIZATION_ROLE('design_supplier');
#370=CC_DESIGN_PERSON_AND_ORGANIZATION_ASSIGNMENT(#364,#369,(#340));
#371=PERSON_AND_ORGANIZATION_ROLE('classification_officer');
#372=CC_DESIGN_PERSON_AND_ORGANIZATION_ASSIGNMENT(#364,#371,(#348));
#373=PERSON_AND_ORGANIZATION_ROLE('design_owner');
#374=CC_DESIGN_PERSON_AND_ORGANIZATION_ASSIGNMENT(#364,#373,(#339));
#5=CIRCLE('',#4,1.6535E0);
#10=CIRCLE('',#9,1.6535E0);
#15=CIRCLE('',#14,7.874E-2);
#20=CIRCLE('',#19,7.874E-2);
#25=CIRCLE('',#24,1.6535E0);
#34=CIRCLE('',#33,1.625E0);
#39=CIRCLE('',#38,1.625E0);
#44=CIRCLE('',#43,1.6535E0);
#57=CIRCLE('',#56,1.625E0);
#62=CIRCLE('',#61,1.625E0);
#67=CIRCLE('',#66,8.858E-2);
#72=CIRCLE('',#71,8.858E-2);
#89=CIRCLE('',#88,8.858E-2);
#94=CIRCLE('',#93,8.858E-2);
#99=CIRCLE('',#98,7.874E-2);
#104=CIRCLE('',#103,7.874E-2);
#150=EDGE_CURVE('',#115,#116,#5,.T.);
#152=EDGE_CURVE('',#116,#115,#10,.T.);
#156=EDGE_CURVE('',#139,#140,#15,.T.);
#158=EDGE_CURVE('',#140,#139,#20,.T.);
#168=EDGE_CURVE('',#127,#128,#25,.T.);
#170=EDGE_CURVE('',#116,#128,#48,.T.);
#173=EDGE_CURVE('',#115,#127,#29,.T.);
#184=EDGE_CURVE('',#128,#127,#44,.T.);
#188=EDGE_CURVE('',#119,#120,#34,.T.);
#190=EDGE_CURVE('',#120,#119,#39,.T.);
#212=EDGE_CURVE('',#123,#124,#57,.T.);
#214=EDGE_CURVE('',#124,#119,#52,.T.);
#217=EDGE_CURVE('',#123,#120,#76,.T.);
#228=EDGE_CURVE('',#124,#123,#62,.T.);
#232=EDGE_CURVE('',#135,#136,#67,.T.);
#234=EDGE_CURVE('',#136,#135,#72,.T.);
#257=EDGE_CURVE('',#135,#131,#80,.T.);
#259=EDGE_CURVE('',#131,#132,#89,.T.);
#261=EDGE_CURVE('',#136,#132,#84,.T.);
#273=EDGE_CURVE('',#132,#131,#94,.T.);
#288=EDGE_CURVE('',#143,#144,#99,.T.);
#290=EDGE_CURVE('',#144,#143,#104,.T.);
#301=EDGE_CURVE('',#144,#140,#112,.T.);
#304=EDGE_CURVE('',#143,#139,#108,.T.);
#334=ADVANCED_BREP_SHAPE_REPRESENTATION('',(#322),#333);
#341=PRODUCT_DEFINITION('design','',#340,#337);
#342=PRODUCT_DEFINITION_SHAPE('','SHAPE FOR 158526_SW.',#341);
#343=SHAPE_DEFINITION_REPRESENTATION(#342,#334);
ENDSEC;
END-ISO-10303-21;
