ISO-10303-21;
HEADER;
FILE_DESCRIPTION((''),'2;1');
FILE_NAME('158516_SW','2011-10-06T',('banengservice'),('BANNER ENGINEERING'),
'PRO/ENGINEER BY PARAMETRIC TECHNOLOGY CORPORATION, 2009141',
'PRO/ENGINEER BY PARAMETRIC TECHNOLOGY CORPORATION, 2009141','');
FILE_SCHEMA(('CONFIG_CONTROL_DESIGN'));
ENDSEC;
DATA;
#1=DIRECTION('',(0.E0,-1.E0,0.E0));
#2=VECTOR('',#1,2.834645669291E0);
#3=CARTESIAN_POINT('',(-3.740157480315E-1,1.417322834646E0,0.E0));
#4=LINE('',#3,#2);
#5=DIRECTION('',(1.E0,0.E0,0.E0));
#6=VECTOR('',#5,7.480314960630E-1);
#7=CARTESIAN_POINT('',(-3.740157480315E-1,-1.417322834646E0,0.E0));
#8=LINE('',#7,#6);
#9=DIRECTION('',(0.E0,1.E0,0.E0));
#10=VECTOR('',#9,2.834645669291E0);
#11=CARTESIAN_POINT('',(3.740157480315E-1,-1.417322834646E0,0.E0));
#12=LINE('',#11,#10);
#13=DIRECTION('',(-1.E0,0.E0,0.E0));
#14=VECTOR('',#13,7.480314960630E-1);
#15=CARTESIAN_POINT('',(3.740157480315E-1,1.417322834646E0,0.E0));
#16=LINE('',#15,#14);
#17=CARTESIAN_POINT('',(0.E0,1.240157480315E0,0.E0));
#18=DIRECTION('',(0.E0,0.E0,-1.E0));
#19=DIRECTION('',(1.E0,0.E0,0.E0));
#20=AXIS2_PLACEMENT_3D('',#17,#18,#19);
#22=CARTESIAN_POINT('',(0.E0,1.240157480315E0,0.E0));
#23=DIRECTION('',(0.E0,0.E0,-1.E0));
#24=DIRECTION('',(-1.E0,0.E0,0.E0));
#25=AXIS2_PLACEMENT_3D('',#22,#23,#24);
#27=CARTESIAN_POINT('',(0.E0,-1.240157480315E0,0.E0));
#28=DIRECTION('',(0.E0,0.E0,-1.E0));
#29=DIRECTION('',(1.E0,0.E0,0.E0));
#30=AXIS2_PLACEMENT_3D('',#27,#28,#29);
#32=CARTESIAN_POINT('',(0.E0,-1.240157480315E0,0.E0));
#33=DIRECTION('',(0.E0,0.E0,-1.E0));
#34=DIRECTION('',(-1.E0,0.E0,0.E0));
#35=AXIS2_PLACEMENT_3D('',#32,#33,#34);
#37=DIRECTION('',(0.E0,0.E0,1.E0));
#38=VECTOR('',#37,1.771653543307E-1);
#39=CARTESIAN_POINT('',(-3.740157480315E-1,1.043307086614E0,1.377952755906E-1));
#40=LINE('',#39,#38);
#41=DIRECTION('',(0.E0,0.E0,1.E0));
#42=VECTOR('',#41,1.377952755906E-1);
#43=CARTESIAN_POINT('',(-3.740157480315E-1,1.417322834646E0,0.E0));
#44=LINE('',#43,#42);
#45=DIRECTION('',(1.E0,0.E0,0.E0));
#46=VECTOR('',#45,7.480314960630E-1);
#47=CARTESIAN_POINT('',(-3.740157480315E-1,1.043307086614E0,1.377952755906E-1));
#48=LINE('',#47,#46);
#49=DIRECTION('',(0.E0,-1.E0,0.E0));
#50=VECTOR('',#49,3.740157480315E-1);
#51=CARTESIAN_POINT('',(-3.740157480315E-1,1.417322834646E0,1.377952755906E-1));
#52=LINE('',#51,#50);
#53=DIRECTION('',(-1.E0,0.E0,0.E0));
#54=VECTOR('',#53,7.480314960630E-1);
#55=CARTESIAN_POINT('',(3.740157480315E-1,1.417322834646E0,1.377952755906E-1));
#56=LINE('',#55,#54);
#57=DIRECTION('',(0.E0,1.E0,0.E0));
#58=VECTOR('',#57,3.740157480315E-1);
#59=CARTESIAN_POINT('',(3.740157480315E-1,1.043307086614E0,1.377952755906E-1));
#60=LINE('',#59,#58);
#61=CARTESIAN_POINT('',(0.E0,1.240157480315E0,1.377952755906E-1));
#62=DIRECTION('',(0.E0,0.E0,-1.E0));
#63=DIRECTION('',(1.E0,0.E0,0.E0));
#64=AXIS2_PLACEMENT_3D('',#61,#62,#63);
#66=CARTESIAN_POINT('',(0.E0,1.240157480315E0,1.377952755906E-1));
#67=DIRECTION('',(0.E0,0.E0,-1.E0));
#68=DIRECTION('',(-1.E0,0.E0,0.E0));
#69=AXIS2_PLACEMENT_3D('',#66,#67,#68);
#71=DIRECTION('',(0.E0,0.E0,1.E0));
#72=VECTOR('',#71,1.771653543307E-1);
#73=CARTESIAN_POINT('',(3.740157480315E-1,1.043307086614E0,1.377952755906E-1));
#74=LINE('',#73,#72);
#75=DIRECTION('',(0.E0,0.E0,1.E0));
#76=VECTOR('',#75,1.771653543307E-1);
#77=CARTESIAN_POINT('',(3.740157480315E-1,-1.043307086614E0,1.377952755906E-1));
#78=LINE('',#77,#76);
#79=DIRECTION('',(0.E0,0.E0,1.E0));
#80=VECTOR('',#79,1.377952755906E-1);
#81=CARTESIAN_POINT('',(3.740157480315E-1,-1.417322834646E0,0.E0));
#82=LINE('',#81,#80);
#83=DIRECTION('',(1.E0,0.E0,0.E0));
#84=VECTOR('',#83,7.480314960630E-1);
#85=CARTESIAN_POINT('',(-3.740157480315E-1,-1.043307086614E0,
1.377952755906E-1));
#86=LINE('',#85,#84);
#87=DIRECTION('',(0.E0,1.E0,0.E0));
#88=VECTOR('',#87,3.740157480315E-1);
#89=CARTESIAN_POINT('',(3.740157480315E-1,-1.417322834646E0,1.377952755906E-1));
#90=LINE('',#89,#88);
#91=DIRECTION('',(1.E0,0.E0,0.E0));
#92=VECTOR('',#91,7.480314960630E-1);
#93=CARTESIAN_POINT('',(-3.740157480315E-1,-1.417322834646E0,
1.377952755906E-1));
#94=LINE('',#93,#92);
#95=DIRECTION('',(0.E0,-1.E0,0.E0));
#96=VECTOR('',#95,3.740157480315E-1);
#97=CARTESIAN_POINT('',(-3.740157480315E-1,-1.043307086614E0,
1.377952755906E-1));
#98=LINE('',#97,#96);
#99=CARTESIAN_POINT('',(0.E0,-1.240157480315E0,1.377952755906E-1));
#100=DIRECTION('',(0.E0,0.E0,-1.E0));
#101=DIRECTION('',(1.E0,0.E0,0.E0));
#102=AXIS2_PLACEMENT_3D('',#99,#100,#101);
#104=CARTESIAN_POINT('',(0.E0,-1.240157480315E0,1.377952755906E-1));
#105=DIRECTION('',(0.E0,0.E0,-1.E0));
#106=DIRECTION('',(-1.E0,0.E0,0.E0));
#107=AXIS2_PLACEMENT_3D('',#104,#105,#106);
#109=DIRECTION('',(0.E0,0.E0,1.E0));
#110=VECTOR('',#109,1.771653543307E-1);
#111=CARTESIAN_POINT('',(-3.740157480315E-1,-1.043307086614E0,
1.377952755906E-1));
#112=LINE('',#111,#110);
#113=DIRECTION('',(0.E0,-1.E0,0.E0));
#114=VECTOR('',#113,2.086614173228E0);
#115=CARTESIAN_POINT('',(-3.740157480315E-1,1.043307086614E0,
3.149606299213E-1));
#116=LINE('',#115,#114);
#117=DIRECTION('',(-1.E0,0.E0,0.E0));
#118=VECTOR('',#117,7.480314960630E-1);
#119=CARTESIAN_POINT('',(3.740157480315E-1,1.043307086614E0,3.149606299213E-1));
#120=LINE('',#119,#118);
#121=DIRECTION('',(0.E0,1.E0,0.E0));
#122=VECTOR('',#121,2.086614173228E0);
#123=CARTESIAN_POINT('',(3.740157480315E-1,-1.043307086614E0,
3.149606299213E-1));
#124=LINE('',#123,#122);
#125=DIRECTION('',(1.E0,0.E0,0.E0));
#126=VECTOR('',#125,7.480314960630E-1);
#127=CARTESIAN_POINT('',(-3.740157480315E-1,-1.043307086614E0,
3.149606299213E-1));
#128=LINE('',#127,#126);
#129=DIRECTION('',(0.E0,-1.E0,0.E0));
#130=VECTOR('',#129,2.047244094488E0);
#131=CARTESIAN_POINT('',(-3.543307086614E-1,1.023622047244E0,
3.149606299213E-1));
#132=LINE('',#131,#130);
#133=DIRECTION('',(1.E0,0.E0,0.E0));
#134=VECTOR('',#133,7.086614173228E-1);
#135=CARTESIAN_POINT('',(-3.543307086614E-1,-1.023622047244E0,
3.149606299213E-1));
#136=LINE('',#135,#134);
#137=DIRECTION('',(0.E0,1.E0,0.E0));
#138=VECTOR('',#137,2.047244094488E0);
#139=CARTESIAN_POINT('',(3.543307086614E-1,-1.023622047244E0,
3.149606299213E-1));
#140=LINE('',#139,#138);
#141=DIRECTION('',(-1.E0,0.E0,0.E0));
#142=VECTOR('',#141,7.086614173228E-1);
#143=CARTESIAN_POINT('',(3.543307086614E-1,1.023622047244E0,3.149606299213E-1));
#144=LINE('',#143,#142);
#145=DIRECTION('',(0.E0,0.E0,-1.E0));
#146=VECTOR('',#145,9.842519685039E-3);
#147=CARTESIAN_POINT('',(-3.543307086614E-1,1.023622047244E0,
3.149606299213E-1));
#148=LINE('',#147,#146);
#149=DIRECTION('',(0.E0,0.E0,-1.E0));
#150=VECTOR('',#149,9.842519685039E-3);
#151=CARTESIAN_POINT('',(3.543307086614E-1,1.023622047244E0,3.149606299213E-1));
#152=LINE('',#151,#150);
#153=DIRECTION('',(0.E0,0.E0,-1.E0));
#154=VECTOR('',#153,9.842519685039E-3);
#155=CARTESIAN_POINT('',(3.543307086614E-1,-1.023622047244E0,
3.149606299213E-1));
#156=LINE('',#155,#154);
#157=DIRECTION('',(0.E0,0.E0,-1.E0));
#158=VECTOR('',#157,9.842519685039E-3);
#159=CARTESIAN_POINT('',(-3.543307086614E-1,-1.023622047244E0,
3.149606299213E-1));
#160=LINE('',#159,#158);
#161=DIRECTION('',(0.E0,-1.E0,0.E0));
#162=VECTOR('',#161,2.047244094488E0);
#163=CARTESIAN_POINT('',(-3.543307086614E-1,1.023622047244E0,
3.051181102362E-1));
#164=LINE('',#163,#162);
#165=DIRECTION('',(-1.E0,0.E0,0.E0));
#166=VECTOR('',#165,7.086614173228E-1);
#167=CARTESIAN_POINT('',(3.543307086614E-1,1.023622047244E0,3.051181102362E-1));
#168=LINE('',#167,#166);
#169=DIRECTION('',(0.E0,1.E0,0.E0));
#170=VECTOR('',#169,2.047244094488E0);
#171=CARTESIAN_POINT('',(3.543307086614E-1,-1.023622047244E0,
3.051181102362E-1));
#172=LINE('',#171,#170);
#173=DIRECTION('',(1.E0,0.E0,0.E0));
#174=VECTOR('',#173,7.086614173228E-1);
#175=CARTESIAN_POINT('',(-3.543307086614E-1,-1.023622047244E0,
3.051181102362E-1));
#176=LINE('',#175,#174);
#177=DIRECTION('',(0.E0,0.E0,1.E0));
#178=VECTOR('',#177,1.377952755906E-1);
#179=CARTESIAN_POINT('',(-3.740157480315E-1,-1.417322834646E0,0.E0));
#180=LINE('',#179,#178);
#181=DIRECTION('',(0.E0,0.E0,1.E0));
#182=VECTOR('',#181,1.377952755906E-1);
#183=CARTESIAN_POINT('',(6.889763779528E-2,-1.240157480315E0,0.E0));
#184=LINE('',#183,#182);
#185=DIRECTION('',(0.E0,0.E0,1.E0));
#186=VECTOR('',#185,1.377952755906E-1);
#187=CARTESIAN_POINT('',(-6.889763779528E-2,-1.240157480315E0,0.E0));
#188=LINE('',#187,#186);
#189=DIRECTION('',(0.E0,0.E0,1.E0));
#190=VECTOR('',#189,1.377952755906E-1);
#191=CARTESIAN_POINT('',(3.740157480315E-1,1.417322834646E0,0.E0));
#192=LINE('',#191,#190);
#193=DIRECTION('',(0.E0,0.E0,1.E0));
#194=VECTOR('',#193,1.377952755906E-1);
#195=CARTESIAN_POINT('',(6.889763779528E-2,1.240157480315E0,0.E0));
#196=LINE('',#195,#194);
#197=DIRECTION('',(0.E0,0.E0,1.E0));
#198=VECTOR('',#197,1.377952755906E-1);
#199=CARTESIAN_POINT('',(-6.889763779528E-2,1.240157480315E0,0.E0));
#200=LINE('',#199,#198);
#201=CARTESIAN_POINT('',(6.889763779528E-2,1.240157480315E0,0.E0));
#202=CARTESIAN_POINT('',(-6.889763779528E-2,1.240157480315E0,0.E0));
#203=VERTEX_POINT('',#201);
#204=VERTEX_POINT('',#202);
#205=CARTESIAN_POINT('',(6.889763779528E-2,-1.240157480315E0,0.E0));
#206=CARTESIAN_POINT('',(-6.889763779528E-2,-1.240157480315E0,0.E0));
#207=VERTEX_POINT('',#205);
#208=VERTEX_POINT('',#206);
#209=CARTESIAN_POINT('',(-3.740157480315E-1,1.417322834646E0,0.E0));
#210=CARTESIAN_POINT('',(-3.740157480315E-1,-1.417322834646E0,0.E0));
#211=VERTEX_POINT('',#209);
#212=VERTEX_POINT('',#210);
#213=CARTESIAN_POINT('',(3.740157480315E-1,-1.417322834646E0,0.E0));
#214=VERTEX_POINT('',#213);
#215=CARTESIAN_POINT('',(3.740157480315E-1,1.417322834646E0,0.E0));
#216=VERTEX_POINT('',#215);
#217=CARTESIAN_POINT('',(6.889763779528E-2,1.240157480315E0,1.377952755906E-1));
#218=CARTESIAN_POINT('',(-6.889763779528E-2,1.240157480315E0,
1.377952755906E-1));
#219=VERTEX_POINT('',#217);
#220=VERTEX_POINT('',#218);
#221=CARTESIAN_POINT('',(6.889763779528E-2,-1.240157480315E0,
1.377952755906E-1));
#222=CARTESIAN_POINT('',(-6.889763779528E-2,-1.240157480315E0,
1.377952755906E-1));
#223=VERTEX_POINT('',#221);
#224=VERTEX_POINT('',#222);
#225=CARTESIAN_POINT('',(-3.740157480315E-1,-1.417322834646E0,
1.377952755906E-1));
#226=CARTESIAN_POINT('',(3.740157480315E-1,-1.417322834646E0,
1.377952755906E-1));
#227=VERTEX_POINT('',#225);
#228=VERTEX_POINT('',#226);
#229=CARTESIAN_POINT('',(3.740157480315E-1,1.417322834646E0,1.377952755906E-1));
#230=CARTESIAN_POINT('',(-3.740157480315E-1,1.417322834646E0,
1.377952755906E-1));
#231=VERTEX_POINT('',#229);
#232=VERTEX_POINT('',#230);
#233=CARTESIAN_POINT('',(-3.740157480315E-1,1.043307086614E0,
3.149606299213E-1));
#234=CARTESIAN_POINT('',(-3.740157480315E-1,-1.043307086614E0,
3.149606299213E-1));
#235=VERTEX_POINT('',#233);
#236=VERTEX_POINT('',#234);
#237=CARTESIAN_POINT('',(3.740157480315E-1,-1.043307086614E0,
3.149606299213E-1));
#238=VERTEX_POINT('',#237);
#239=CARTESIAN_POINT('',(3.740157480315E-1,1.043307086614E0,3.149606299213E-1));
#240=VERTEX_POINT('',#239);
#241=CARTESIAN_POINT('',(-3.740157480315E-1,-1.043307086614E0,
1.377952755906E-1));
#242=CARTESIAN_POINT('',(3.740157480315E-1,-1.043307086614E0,
1.377952755906E-1));
#243=VERTEX_POINT('',#241);
#244=VERTEX_POINT('',#242);
#245=CARTESIAN_POINT('',(-3.740157480315E-1,1.043307086614E0,
1.377952755906E-1));
#246=CARTESIAN_POINT('',(3.740157480315E-1,1.043307086614E0,1.377952755906E-1));
#247=VERTEX_POINT('',#245);
#248=VERTEX_POINT('',#246);
#249=CARTESIAN_POINT('',(-3.543307086614E-1,1.023622047244E0,
3.051181102362E-1));
#250=CARTESIAN_POINT('',(-3.543307086614E-1,-1.023622047244E0,
3.051181102362E-1));
#251=VERTEX_POINT('',#249);
#252=VERTEX_POINT('',#250);
#253=CARTESIAN_POINT('',(3.543307086614E-1,-1.023622047244E0,
3.051181102362E-1));
#254=VERTEX_POINT('',#253);
#255=CARTESIAN_POINT('',(3.543307086614E-1,1.023622047244E0,3.051181102362E-1));
#256=VERTEX_POINT('',#255);
#257=CARTESIAN_POINT('',(-3.543307086614E-1,1.023622047244E0,
3.149606299213E-1));
#258=CARTESIAN_POINT('',(-3.543307086614E-1,-1.023622047244E0,
3.149606299213E-1));
#259=VERTEX_POINT('',#257);
#260=VERTEX_POINT('',#258);
#261=CARTESIAN_POINT('',(3.543307086614E-1,-1.023622047244E0,
3.149606299213E-1));
#262=VERTEX_POINT('',#261);
#263=CARTESIAN_POINT('',(3.543307086614E-1,1.023622047244E0,3.149606299213E-1));
#264=VERTEX_POINT('',#263);
#265=CARTESIAN_POINT('',(0.E0,0.E0,0.E0));
#266=DIRECTION('',(0.E0,0.E0,1.E0));
#267=DIRECTION('',(1.E0,0.E0,0.E0));
#268=AXIS2_PLACEMENT_3D('',#265,#266,#267);
#269=PLANE('',#268);
#271=ORIENTED_EDGE('',*,*,#270,.T.);
#273=ORIENTED_EDGE('',*,*,#272,.T.);
#275=ORIENTED_EDGE('',*,*,#274,.T.);
#277=ORIENTED_EDGE('',*,*,#276,.T.);
#278=EDGE_LOOP('',(#271,#273,#275,#277));
#279=FACE_OUTER_BOUND('',#278,.F.);
#281=ORIENTED_EDGE('',*,*,#280,.T.);
#283=ORIENTED_EDGE('',*,*,#282,.T.);
#284=EDGE_LOOP('',(#281,#283));
#285=FACE_BOUND('',#284,.F.);
#287=ORIENTED_EDGE('',*,*,#286,.T.);
#289=ORIENTED_EDGE('',*,*,#288,.T.);
#290=EDGE_LOOP('',(#287,#289));
#291=FACE_BOUND('',#290,.F.);
#292=ADVANCED_FACE('',(#279,#285,#291),#269,.F.);
#293=CARTESIAN_POINT('',(-3.740157480315E-1,1.417322834646E0,0.E0));
#294=DIRECTION('',(-1.E0,0.E0,0.E0));
#295=DIRECTION('',(0.E0,-1.E0,0.E0));
#296=AXIS2_PLACEMENT_3D('',#293,#294,#295);
#297=PLANE('',#296);
#299=ORIENTED_EDGE('',*,*,#298,.T.);
#301=ORIENTED_EDGE('',*,*,#300,.T.);
#303=ORIENTED_EDGE('',*,*,#302,.T.);
#305=ORIENTED_EDGE('',*,*,#304,.F.);
#307=ORIENTED_EDGE('',*,*,#306,.T.);
#309=ORIENTED_EDGE('',*,*,#308,.F.);
#310=ORIENTED_EDGE('',*,*,#270,.F.);
#312=ORIENTED_EDGE('',*,*,#311,.T.);
#313=EDGE_LOOP('',(#299,#301,#303,#305,#307,#309,#310,#312));
#314=FACE_OUTER_BOUND('',#313,.F.);
#315=ADVANCED_FACE('',(#314),#297,.T.);
#316=CARTESIAN_POINT('',(0.E0,0.E0,1.377952755906E-1));
#317=DIRECTION('',(0.E0,0.E0,1.E0));
#318=DIRECTION('',(1.E0,0.E0,0.E0));
#319=AXIS2_PLACEMENT_3D('',#316,#317,#318);
#320=PLANE('',#319);
#322=ORIENTED_EDGE('',*,*,#321,.F.);
#323=ORIENTED_EDGE('',*,*,#298,.F.);
#325=ORIENTED_EDGE('',*,*,#324,.F.);
#327=ORIENTED_EDGE('',*,*,#326,.F.);
#328=EDGE_LOOP('',(#322,#323,#325,#327));
#329=FACE_OUTER_BOUND('',#328,.F.);
#331=ORIENTED_EDGE('',*,*,#330,.F.);
#333=ORIENTED_EDGE('',*,*,#332,.F.);
#334=EDGE_LOOP('',(#331,#333));
#335=FACE_BOUND('',#334,.F.);
#336=ADVANCED_FACE('',(#329,#335),#320,.T.);
#337=CARTESIAN_POINT('',(3.740157480315E-1,1.043307086614E0,0.E0));
#338=DIRECTION('',(0.E0,1.E0,0.E0));
#339=DIRECTION('',(-1.E0,0.E0,0.E0));
#340=AXIS2_PLACEMENT_3D('',#337,#338,#339);
#341=PLANE('',#340);
#342=ORIENTED_EDGE('',*,*,#321,.T.);
#344=ORIENTED_EDGE('',*,*,#343,.T.);
#346=ORIENTED_EDGE('',*,*,#345,.T.);
#347=ORIENTED_EDGE('',*,*,#300,.F.);
#348=EDGE_LOOP('',(#342,#344,#346,#347));
#349=FACE_OUTER_BOUND('',#348,.F.);
#350=ADVANCED_FACE('',(#349),#341,.T.);
#351=CARTESIAN_POINT('',(3.740157480315E-1,-1.417322834646E0,0.E0));
#352=DIRECTION('',(1.E0,0.E0,0.E0));
#353=DIRECTION('',(0.E0,1.E0,0.E0));
#354=AXIS2_PLACEMENT_3D('',#351,#352,#353);
#355=PLANE('',#354);
#357=ORIENTED_EDGE('',*,*,#356,.T.);
#359=ORIENTED_EDGE('',*,*,#358,.T.);
#361=ORIENTED_EDGE('',*,*,#360,.T.);
#362=ORIENTED_EDGE('',*,*,#343,.F.);
#363=ORIENTED_EDGE('',*,*,#326,.T.);
#365=ORIENTED_EDGE('',*,*,#364,.F.);
#366=ORIENTED_EDGE('',*,*,#274,.F.);
#368=ORIENTED_EDGE('',*,*,#367,.T.);
#369=EDGE_LOOP('',(#357,#359,#361,#362,#363,#365,#366,#368));
#370=FACE_OUTER_BOUND('',#369,.F.);
#371=ADVANCED_FACE('',(#370),#355,.T.);
#372=CARTESIAN_POINT('',(0.E0,0.E0,1.377952755906E-1));
#373=DIRECTION('',(0.E0,0.E0,1.E0));
#374=DIRECTION('',(1.E0,0.E0,0.E0));
#375=AXIS2_PLACEMENT_3D('',#372,#373,#374);
#376=PLANE('',#375);
#378=ORIENTED_EDGE('',*,*,#377,.T.);
#379=ORIENTED_EDGE('',*,*,#356,.F.);
#381=ORIENTED_EDGE('',*,*,#380,.F.);
#382=ORIENTED_EDGE('',*,*,#306,.F.);
#383=EDGE_LOOP('',(#378,#379,#381,#382));
#384=FACE_OUTER_BOUND('',#383,.F.);
#386=ORIENTED_EDGE('',*,*,#385,.F.);
#388=ORIENTED_EDGE('',*,*,#387,.F.);
#389=EDGE_LOOP('',(#386,#388));
#390=FACE_BOUND('',#389,.F.);
#391=ADVANCED_FACE('',(#384,#390),#376,.T.);
#392=CARTESIAN_POINT('',(-3.740157480315E-1,-1.043307086614E0,0.E0));
#393=DIRECTION('',(0.E0,-1.E0,0.E0));
#394=DIRECTION('',(1.E0,0.E0,0.E0));
#395=AXIS2_PLACEMENT_3D('',#392,#393,#394);
#396=PLANE('',#395);
#397=ORIENTED_EDGE('',*,*,#377,.F.);
#398=ORIENTED_EDGE('',*,*,#304,.T.);
#400=ORIENTED_EDGE('',*,*,#399,.T.);
#401=ORIENTED_EDGE('',*,*,#358,.F.);
#402=EDGE_LOOP('',(#397,#398,#400,#401));
#403=FACE_OUTER_BOUND('',#402,.F.);
#404=ADVANCED_FACE('',(#403),#396,.T.);
#405=CARTESIAN_POINT('',(0.E0,0.E0,3.149606299213E-1));
#406=DIRECTION('',(0.E0,0.E0,1.E0));
#407=DIRECTION('',(1.E0,0.E0,0.E0));
#408=AXIS2_PLACEMENT_3D('',#405,#406,#407);
#409=PLANE('',#408);
#410=ORIENTED_EDGE('',*,*,#302,.F.);
#411=ORIENTED_EDGE('',*,*,#345,.F.);
#412=ORIENTED_EDGE('',*,*,#360,.F.);
#413=ORIENTED_EDGE('',*,*,#399,.F.);
#414=EDGE_LOOP('',(#410,#411,#412,#413));
#415=FACE_OUTER_BOUND('',#414,.F.);
#417=ORIENTED_EDGE('',*,*,#416,.T.);
#419=ORIENTED_EDGE('',*,*,#418,.T.);
#421=ORIENTED_EDGE('',*,*,#420,.T.);
#423=ORIENTED_EDGE('',*,*,#422,.T.);
#424=EDGE_LOOP('',(#417,#419,#421,#423));
#425=FACE_BOUND('',#424,.F.);
#426=ADVANCED_FACE('',(#415,#425),#409,.T.);
#427=CARTESIAN_POINT('',(-3.543307086614E-1,1.023622047244E0,
3.149606299213E-1));
#428=DIRECTION('',(-1.E0,0.E0,0.E0));
#429=DIRECTION('',(0.E0,-1.E0,0.E0));
#430=AXIS2_PLACEMENT_3D('',#427,#428,#429);
#431=PLANE('',#430);
#432=ORIENTED_EDGE('',*,*,#416,.F.);
#434=ORIENTED_EDGE('',*,*,#433,.T.);
#436=ORIENTED_EDGE('',*,*,#435,.T.);
#438=ORIENTED_EDGE('',*,*,#437,.F.);
#439=EDGE_LOOP('',(#432,#434,#436,#438));
#440=FACE_OUTER_BOUND('',#439,.F.);
#441=ADVANCED_FACE('',(#440),#431,.F.);
#442=CARTESIAN_POINT('',(3.543307086614E-1,1.023622047244E0,3.149606299213E-1));
#443=DIRECTION('',(0.E0,1.E0,0.E0));
#444=DIRECTION('',(-1.E0,0.E0,0.E0));
#445=AXIS2_PLACEMENT_3D('',#442,#443,#444);
#446=PLANE('',#445);
#447=ORIENTED_EDGE('',*,*,#422,.F.);
#449=ORIENTED_EDGE('',*,*,#448,.T.);
#451=ORIENTED_EDGE('',*,*,#450,.T.);
#452=ORIENTED_EDGE('',*,*,#433,.F.);
#453=EDGE_LOOP('',(#447,#449,#451,#452));
#454=FACE_OUTER_BOUND('',#453,.F.);
#455=ADVANCED_FACE('',(#454),#446,.F.);
#456=CARTESIAN_POINT('',(3.543307086614E-1,-1.023622047244E0,
3.149606299213E-1));
#457=DIRECTION('',(1.E0,0.E0,0.E0));
#458=DIRECTION('',(0.E0,1.E0,0.E0));
#459=AXIS2_PLACEMENT_3D('',#456,#457,#458);
#460=PLANE('',#459);
#461=ORIENTED_EDGE('',*,*,#420,.F.);
#463=ORIENTED_EDGE('',*,*,#462,.T.);
#465=ORIENTED_EDGE('',*,*,#464,.T.);
#466=ORIENTED_EDGE('',*,*,#448,.F.);
#467=EDGE_LOOP('',(#461,#463,#465,#466));
#468=FACE_OUTER_BOUND('',#467,.F.);
#469=ADVANCED_FACE('',(#468),#460,.F.);
#470=CARTESIAN_POINT('',(-3.543307086614E-1,-1.023622047244E0,
3.149606299213E-1));
#471=DIRECTION('',(0.E0,-1.E0,0.E0));
#472=DIRECTION('',(1.E0,0.E0,0.E0));
#473=AXIS2_PLACEMENT_3D('',#470,#471,#472);
#474=PLANE('',#473);
#475=ORIENTED_EDGE('',*,*,#418,.F.);
#476=ORIENTED_EDGE('',*,*,#437,.T.);
#478=ORIENTED_EDGE('',*,*,#477,.T.);
#479=ORIENTED_EDGE('',*,*,#462,.F.);
#480=EDGE_LOOP('',(#475,#476,#478,#479));
#481=FACE_OUTER_BOUND('',#480,.F.);
#482=ADVANCED_FACE('',(#481),#474,.F.);
#483=CARTESIAN_POINT('',(0.E0,0.E0,3.051181102362E-1));
#484=DIRECTION('',(0.E0,0.E0,1.E0));
#485=DIRECTION('',(1.E0,0.E0,0.E0));
#486=AXIS2_PLACEMENT_3D('',#483,#484,#485);
#487=PLANE('',#486);
#488=ORIENTED_EDGE('',*,*,#435,.F.);
#489=ORIENTED_EDGE('',*,*,#450,.F.);
#490=ORIENTED_EDGE('',*,*,#464,.F.);
#491=ORIENTED_EDGE('',*,*,#477,.F.);
#492=EDGE_LOOP('',(#488,#489,#490,#491));
#493=FACE_OUTER_BOUND('',#492,.F.);
#494=ADVANCED_FACE('',(#493),#487,.T.);
#495=CARTESIAN_POINT('',(-3.740157480315E-1,-1.417322834646E0,0.E0));
#496=DIRECTION('',(0.E0,-1.E0,0.E0));
#497=DIRECTION('',(1.E0,0.E0,0.E0));
#498=AXIS2_PLACEMENT_3D('',#495,#496,#497);
#499=PLANE('',#498);
#500=ORIENTED_EDGE('',*,*,#272,.F.);
#501=ORIENTED_EDGE('',*,*,#308,.T.);
#502=ORIENTED_EDGE('',*,*,#380,.T.);
#503=ORIENTED_EDGE('',*,*,#367,.F.);
#504=EDGE_LOOP('',(#500,#501,#502,#503));
#505=FACE_OUTER_BOUND('',#504,.F.);
#506=ADVANCED_FACE('',(#505),#499,.T.);
#507=CARTESIAN_POINT('',(0.E0,-1.240157480315E0,0.E0));
#508=DIRECTION('',(0.E0,0.E0,1.E0));
#509=DIRECTION('',(1.E0,0.E0,0.E0));
#510=AXIS2_PLACEMENT_3D('',#507,#508,#509);
#511=CYLINDRICAL_SURFACE('',#510,6.889763779528E-2);
#512=ORIENTED_EDGE('',*,*,#286,.F.);
#514=ORIENTED_EDGE('',*,*,#513,.T.);
#515=ORIENTED_EDGE('',*,*,#385,.T.);
#517=ORIENTED_EDGE('',*,*,#516,.F.);
#518=EDGE_LOOP('',(#512,#514,#515,#517));
#519=FACE_OUTER_BOUND('',#518,.F.);
#520=ADVANCED_FACE('',(#519),#511,.F.);
#521=CARTESIAN_POINT('',(0.E0,-1.240157480315E0,0.E0));
#522=DIRECTION('',(0.E0,0.E0,1.E0));
#523=DIRECTION('',(1.E0,0.E0,0.E0));
#524=AXIS2_PLACEMENT_3D('',#521,#522,#523);
#525=CYLINDRICAL_SURFACE('',#524,6.889763779528E-2);
#526=ORIENTED_EDGE('',*,*,#288,.F.);
#527=ORIENTED_EDGE('',*,*,#516,.T.);
#528=ORIENTED_EDGE('',*,*,#387,.T.);
#529=ORIENTED_EDGE('',*,*,#513,.F.);
#530=EDGE_LOOP('',(#526,#527,#528,#529));
#531=FACE_OUTER_BOUND('',#530,.F.);
#532=ADVANCED_FACE('',(#531),#525,.F.);
#533=CARTESIAN_POINT('',(3.740157480315E-1,1.417322834646E0,0.E0));
#534=DIRECTION('',(0.E0,1.E0,0.E0));
#535=DIRECTION('',(-1.E0,0.E0,0.E0));
#536=AXIS2_PLACEMENT_3D('',#533,#534,#535);
#537=PLANE('',#536);
#538=ORIENTED_EDGE('',*,*,#276,.F.);
#539=ORIENTED_EDGE('',*,*,#364,.T.);
#540=ORIENTED_EDGE('',*,*,#324,.T.);
#541=ORIENTED_EDGE('',*,*,#311,.F.);
#542=EDGE_LOOP('',(#538,#539,#540,#541));
#543=FACE_OUTER_BOUND('',#542,.F.);
#544=ADVANCED_FACE('',(#543),#537,.T.);
#545=CARTESIAN_POINT('',(0.E0,1.240157480315E0,0.E0));
#546=DIRECTION('',(0.E0,0.E0,1.E0));
#547=DIRECTION('',(1.E0,0.E0,0.E0));
#548=AXIS2_PLACEMENT_3D('',#545,#546,#547);
#549=CYLINDRICAL_SURFACE('',#548,6.889763779528E-2);
#550=ORIENTED_EDGE('',*,*,#280,.F.);
#552=ORIENTED_EDGE('',*,*,#551,.T.);
#553=ORIENTED_EDGE('',*,*,#330,.T.);
#555=ORIENTED_EDGE('',*,*,#554,.F.);
#556=EDGE_LOOP('',(#550,#552,#553,#555));
#557=FACE_OUTER_BOUND('',#556,.F.);
#558=ADVANCED_FACE('',(#557),#549,.F.);
#559=CARTESIAN_POINT('',(0.E0,1.240157480315E0,0.E0));
#560=DIRECTION('',(0.E0,0.E0,1.E0));
#561=DIRECTION('',(1.E0,0.E0,0.E0));
#562=AXIS2_PLACEMENT_3D('',#559,#560,#561);
#563=CYLINDRICAL_SURFACE('',#562,6.889763779528E-2);
#564=ORIENTED_EDGE('',*,*,#282,.F.);
#565=ORIENTED_EDGE('',*,*,#554,.T.);
#566=ORIENTED_EDGE('',*,*,#332,.T.);
#567=ORIENTED_EDGE('',*,*,#551,.F.);
#568=EDGE_LOOP('',(#564,#565,#566,#567));
#569=FACE_OUTER_BOUND('',#568,.F.);
#570=ADVANCED_FACE('',(#569),#563,.F.);
#571=CLOSED_SHELL('',(#292,#315,#336,#350,#371,#391,#404,#426,#441,#455,#469,
#482,#494,#506,#520,#532,#544,#558,#570));
#572=MANIFOLD_SOLID_BREP('',#571);
#573=DIMENSIONAL_EXPONENTS(1.E0,0.E0,0.E0,0.E0,0.E0,0.E0,0.E0);
#574=(LENGTH_UNIT()NAMED_UNIT(*)SI_UNIT(.MILLI.,.METRE.));
#575=LENGTH_MEASURE_WITH_UNIT(LENGTH_MEASURE(2.54E1),#574);
#576=(CONVERSION_BASED_UNIT('INCH',#575)LENGTH_UNIT()NAMED_UNIT(#573));
#577=DIMENSIONAL_EXPONENTS(0.E0,0.E0,0.E0,0.E0,0.E0,0.E0,0.E0);
#578=(NAMED_UNIT(*)PLANE_ANGLE_UNIT()SI_UNIT($,.RADIAN.));
#579=PLANE_ANGLE_MEASURE_WITH_UNIT(PLANE_ANGLE_MEASURE(1.745329251994E-2),#578);
#580=(CONVERSION_BASED_UNIT('DEGREE',#579)NAMED_UNIT(#577)PLANE_ANGLE_UNIT());
#581=(NAMED_UNIT(*)SI_UNIT($,.STERADIAN.)SOLID_ANGLE_UNIT());
#582=UNCERTAINTY_MEASURE_WITH_UNIT(LENGTH_MEASURE(3.224722676838E-4),#576,
'closure',
'Maximum model space distance between geometric entities at asserted connectivities');
#583=(GEOMETRIC_REPRESENTATION_CONTEXT(3)GLOBAL_UNCERTAINTY_ASSIGNED_CONTEXT((
#582))GLOBAL_UNIT_ASSIGNED_CONTEXT((#576,#580,#581))REPRESENTATION_CONTEXT
('ID1','3'));
#585=APPLICATION_CONTEXT(
'CONFIGURATION CONTROLLED 3D DESIGNS OF MECHANICAL PARTS AND ASSEMBLIES');
#586=APPLICATION_PROTOCOL_DEFINITION('international standard',
'config_control_design',1994,#585);
#587=DESIGN_CONTEXT('',#585,'design');
#588=MECHANICAL_CONTEXT('',#585,'mechanical');
#589=PRODUCT('158516_SW','158516_SW','NOT SPECIFIED',(#588));
#590=PRODUCT_DEFINITION_FORMATION_WITH_SPECIFIED_SOURCE('','LAST_VERSION',#589,
.MADE.);
#594=PRODUCT_CATEGORY('part','');
#595=PRODUCT_RELATED_PRODUCT_CATEGORY('detail','',(#589));
#596=PRODUCT_CATEGORY_RELATIONSHIP('','',#594,#595);
#597=SECURITY_CLASSIFICATION_LEVEL('unclassified');
#598=SECURITY_CLASSIFICATION('','',#597);
#599=CC_DESIGN_SECURITY_CLASSIFICATION(#598,(#590));
#600=APPROVAL_STATUS('approved');
#601=APPROVAL(#600,'');
#602=CC_DESIGN_APPROVAL(#601,(#598,#590,#591));
#603=CALENDAR_DATE(111,6,10);
#604=COORDINATED_UNIVERSAL_TIME_OFFSET(5,0,.BEHIND.);
#605=LOCAL_TIME(13,18,2.6E1,#604);
#606=DATE_AND_TIME(#603,#605);
#607=APPROVAL_DATE_TIME(#606,#601);
#608=DATE_TIME_ROLE('creation_date');
#609=CC_DESIGN_DATE_AND_TIME_ASSIGNMENT(#606,#608,(#591));
#610=DATE_TIME_ROLE('classification_date');
#611=CC_DESIGN_DATE_AND_TIME_ASSIGNMENT(#606,#610,(#598));
#612=PERSON('UNSPECIFIED','UNSPECIFIED',$,$,$,$);
#613=ORGANIZATION('UNSPECIFIED','UNSPECIFIED','UNSPECIFIED');
#614=PERSON_AND_ORGANIZATION(#612,#613);
#615=APPROVAL_ROLE('approver');
#616=APPROVAL_PERSON_ORGANIZATION(#614,#601,#615);
#617=PERSON_AND_ORGANIZATION_ROLE('creator');
#618=CC_DESIGN_PERSON_AND_ORGANIZATION_ASSIGNMENT(#614,#617,(#590,#591));
#619=PERSON_AND_ORGANIZATION_ROLE('design_supplier');
#620=CC_DESIGN_PERSON_AND_ORGANIZATION_ASSIGNMENT(#614,#619,(#590));
#621=PERSON_AND_ORGANIZATION_ROLE('classification_officer');
#622=CC_DESIGN_PERSON_AND_ORGANIZATION_ASSIGNMENT(#614,#621,(#598));
#623=PERSON_AND_ORGANIZATION_ROLE('design_owner');
#624=CC_DESIGN_PERSON_AND_ORGANIZATION_ASSIGNMENT(#614,#623,(#589));
#21=CIRCLE('',#20,6.889763779528E-2);
#26=CIRCLE('',#25,6.889763779528E-2);
#31=CIRCLE('',#30,6.889763779528E-2);
#36=CIRCLE('',#35,6.889763779528E-2);
#65=CIRCLE('',#64,6.889763779528E-2);
#70=CIRCLE('',#69,6.889763779528E-2);
#103=CIRCLE('',#102,6.889763779528E-2);
#108=CIRCLE('',#107,6.889763779528E-2);
#270=EDGE_CURVE('',#211,#212,#4,.T.);
#272=EDGE_CURVE('',#212,#214,#8,.T.);
#274=EDGE_CURVE('',#214,#216,#12,.T.);
#276=EDGE_CURVE('',#216,#211,#16,.T.);
#280=EDGE_CURVE('',#203,#204,#21,.T.);
#282=EDGE_CURVE('',#204,#203,#26,.T.);
#286=EDGE_CURVE('',#207,#208,#31,.T.);
#288=EDGE_CURVE('',#208,#207,#36,.T.);
#298=EDGE_CURVE('',#232,#247,#52,.T.);
#300=EDGE_CURVE('',#247,#235,#40,.T.);
#302=EDGE_CURVE('',#235,#236,#116,.T.);
#304=EDGE_CURVE('',#243,#236,#112,.T.);
#306=EDGE_CURVE('',#243,#227,#98,.T.);
#308=EDGE_CURVE('',#212,#227,#180,.T.);
#311=EDGE_CURVE('',#211,#232,#44,.T.);
#321=EDGE_CURVE('',#247,#248,#48,.T.);
#324=EDGE_CURVE('',#231,#232,#56,.T.);
#326=EDGE_CURVE('',#248,#231,#60,.T.);
#330=EDGE_CURVE('',#219,#220,#65,.T.);
#332=EDGE_CURVE('',#220,#219,#70,.T.);
#343=EDGE_CURVE('',#248,#240,#74,.T.);
#345=EDGE_CURVE('',#240,#235,#120,.T.);
#356=EDGE_CURVE('',#228,#244,#90,.T.);
#358=EDGE_CURVE('',#244,#238,#78,.T.);
#360=EDGE_CURVE('',#238,#240,#124,.T.);
#364=EDGE_CURVE('',#216,#231,#192,.T.);
#367=EDGE_CURVE('',#214,#228,#82,.T.);
#377=EDGE_CURVE('',#243,#244,#86,.T.);
#380=EDGE_CURVE('',#227,#228,#94,.T.);
#385=EDGE_CURVE('',#223,#224,#103,.T.);
#387=EDGE_CURVE('',#224,#223,#108,.T.);
#399=EDGE_CURVE('',#236,#238,#128,.T.);
#416=EDGE_CURVE('',#259,#260,#132,.T.);
#418=EDGE_CURVE('',#260,#262,#136,.T.);
#420=EDGE_CURVE('',#262,#264,#140,.T.);
#422=EDGE_CURVE('',#264,#259,#144,.T.);
#433=EDGE_CURVE('',#259,#251,#148,.T.);
#435=EDGE_CURVE('',#251,#252,#164,.T.);
#437=EDGE_CURVE('',#260,#252,#160,.T.);
#448=EDGE_CURVE('',#264,#256,#152,.T.);
#450=EDGE_CURVE('',#256,#251,#168,.T.);
#462=EDGE_CURVE('',#262,#254,#156,.T.);
#464=EDGE_CURVE('',#254,#256,#172,.T.);
#477=EDGE_CURVE('',#252,#254,#176,.T.);
#513=EDGE_CURVE('',#207,#223,#184,.T.);
#516=EDGE_CURVE('',#208,#224,#188,.T.);
#551=EDGE_CURVE('',#203,#219,#196,.T.);
#554=EDGE_CURVE('',#204,#220,#200,.T.);
#584=ADVANCED_BREP_SHAPE_REPRESENTATION('',(#572),#583);
#591=PRODUCT_DEFINITION('design','',#590,#587);
#592=PRODUCT_DEFINITION_SHAPE('','SHAPE FOR 158516_SW.',#591);
#593=SHAPE_DEFINITION_REPRESENTATION(#592,#584);
ENDSEC;
END-ISO-10303-21;
