ISO-10303-21;
HEADER;
FILE_DESCRIPTION((''),'2;1');
FILE_NAME('158506_SW','2011-10-06T',('banengservice'),('BANNER ENGINEERING'),
'PRO/ENGINEER BY PARAMETRIC TECHNOLOGY CORPORATION, 2009141',
'PRO/ENGINEER BY PARAMETRIC TECHNOLOGY CORPORATION, 2009141','');
FILE_SCHEMA(('CONFIG_CONTROL_DESIGN'));
ENDSEC;
DATA;
#1=CARTESIAN_POINT('',(0.E0,0.E0,0.E0));
#2=DIRECTION('',(0.E0,0.E0,1.E0));
#3=DIRECTION('',(1.E0,0.E0,0.E0));
#4=AXIS2_PLACEMENT_3D('',#1,#2,#3);
#6=CARTESIAN_POINT('',(0.E0,0.E0,0.E0));
#7=DIRECTION('',(0.E0,0.E0,1.E0));
#8=DIRECTION('',(-1.E0,0.E0,0.E0));
#9=AXIS2_PLACEMENT_3D('',#6,#7,#8);
#11=CARTESIAN_POINT('',(0.E0,0.E0,0.E0));
#12=DIRECTION('',(0.E0,0.E0,1.E0));
#13=DIRECTION('',(-1.E0,0.E0,0.E0));
#14=AXIS2_PLACEMENT_3D('',#11,#12,#13);
#16=CARTESIAN_POINT('',(0.E0,0.E0,0.E0));
#17=DIRECTION('',(0.E0,0.E0,1.E0));
#18=DIRECTION('',(1.E0,0.E0,0.E0));
#19=AXIS2_PLACEMENT_3D('',#16,#17,#18);
#21=DIRECTION('',(0.E0,0.E0,1.E0));
#22=VECTOR('',#21,3.75E-1);
#23=CARTESIAN_POINT('',(8.27E-1,0.E0,0.E0));
#24=LINE('',#23,#22);
#25=DIRECTION('',(0.E0,0.E0,1.E0));
#26=VECTOR('',#25,3.75E-1);
#27=CARTESIAN_POINT('',(-8.27E-1,0.E0,0.E0));
#28=LINE('',#27,#26);
#29=CARTESIAN_POINT('',(0.E0,0.E0,3.75E-1));
#30=DIRECTION('',(0.E0,0.E0,1.E0));
#31=DIRECTION('',(1.E0,0.E0,0.E0));
#32=AXIS2_PLACEMENT_3D('',#29,#30,#31);
#34=CARTESIAN_POINT('',(0.E0,0.E0,3.75E-1));
#35=DIRECTION('',(0.E0,0.E0,1.E0));
#36=DIRECTION('',(-1.E0,0.E0,0.E0));
#37=AXIS2_PLACEMENT_3D('',#34,#35,#36);
#39=CARTESIAN_POINT('',(0.E0,0.E0,3.75E-1));
#40=DIRECTION('',(0.E0,0.E0,1.E0));
#41=DIRECTION('',(1.E0,0.E0,0.E0));
#42=AXIS2_PLACEMENT_3D('',#39,#40,#41);
#44=CARTESIAN_POINT('',(0.E0,0.E0,3.75E-1));
#45=DIRECTION('',(0.E0,0.E0,1.E0));
#46=DIRECTION('',(-1.E0,0.E0,0.E0));
#47=AXIS2_PLACEMENT_3D('',#44,#45,#46);
#49=DIRECTION('',(0.E0,0.E0,-1.E0));
#50=VECTOR('',#49,1.4E-2);
#51=CARTESIAN_POINT('',(7.875E-1,0.E0,3.75E-1));
#52=LINE('',#51,#50);
#53=DIRECTION('',(0.E0,0.E0,-1.E0));
#54=VECTOR('',#53,1.4E-2);
#55=CARTESIAN_POINT('',(-7.875E-1,0.E0,3.75E-1));
#56=LINE('',#55,#54);
#57=CARTESIAN_POINT('',(0.E0,0.E0,3.61E-1));
#58=DIRECTION('',(0.E0,0.E0,1.E0));
#59=DIRECTION('',(1.E0,0.E0,0.E0));
#60=AXIS2_PLACEMENT_3D('',#57,#58,#59);
#62=CARTESIAN_POINT('',(0.E0,0.E0,3.61E-1));
#63=DIRECTION('',(0.E0,0.E0,1.E0));
#64=DIRECTION('',(-1.E0,0.E0,0.E0));
#65=AXIS2_PLACEMENT_3D('',#62,#63,#64);
#67=CARTESIAN_POINT('',(0.E0,0.E0,-3.549979170671E-1));
#68=DIRECTION('',(0.E0,0.E0,-1.E0));
#69=DIRECTION('',(1.E0,0.E0,0.E0));
#70=AXIS2_PLACEMENT_3D('',#67,#68,#69);
#72=DIRECTION('',(1.467095775816E-6,9.009137044639E-10,-9.999999999989E-1));
#73=VECTOR('',#72,3.549994793651E-1);
#74=CARTESIAN_POINT('',(-8.4E-2,0.E0,0.E0));
#75=LINE('',#74,#73);
#76=DIRECTION('',(7.071070734162E-1,1.794841688785E-10,7.071064889568E-1));
#77=VECTOR('',#76,2.828427124952E-2);
#78=CARTESIAN_POINT('',(6.399947091481E-2,-3.249004848420E-10,
-3.749994711006E-1));
#79=LINE('',#78,#77);
#80=CARTESIAN_POINT('',(0.E0,0.E0,-3.75E-1));
#81=DIRECTION('',(0.E0,0.E0,-1.E0));
#82=DIRECTION('',(1.E0,0.E0,0.E0));
#83=AXIS2_PLACEMENT_3D('',#80,#81,#82);
#85=CARTESIAN_POINT('',(0.E0,0.E0,-3.75E-1));
#86=DIRECTION('',(0.E0,0.E0,-1.E0));
#87=DIRECTION('',(-1.E0,0.E0,0.E0));
#88=AXIS2_PLACEMENT_3D('',#85,#86,#87);
#90=DIRECTION('',(-7.071070734162E-1,-1.794836669106E-10,7.071064889568E-1));
#91=VECTOR('',#90,2.828427124952E-2);
#92=CARTESIAN_POINT('',(-6.399947091481E-2,3.249004710443E-10,
-3.749994711006E-1));
#93=LINE('',#92,#91);
#94=CARTESIAN_POINT('',(0.E0,0.E0,-3.549979170671E-1));
#95=DIRECTION('',(0.E0,0.E0,-1.E0));
#96=DIRECTION('',(-1.E0,0.E0,0.E0));
#97=AXIS2_PLACEMENT_3D('',#94,#95,#96);
#99=DIRECTION('',(-1.467095775816E-6,-9.009137033368E-10,-9.999999999989E-1));
#100=VECTOR('',#99,3.549994793651E-1);
#101=CARTESIAN_POINT('',(8.4E-2,0.E0,0.E0));
#102=LINE('',#101,#100);
#103=CARTESIAN_POINT('',(8.27E-1,0.E0,0.E0));
#104=CARTESIAN_POINT('',(-8.27E-1,0.E0,0.E0));
#105=VERTEX_POINT('',#103);
#106=VERTEX_POINT('',#104);
#107=CARTESIAN_POINT('',(8.27E-1,0.E0,3.75E-1));
#108=CARTESIAN_POINT('',(-8.27E-1,0.E0,3.75E-1));
#109=VERTEX_POINT('',#107);
#110=VERTEX_POINT('',#108);
#111=CARTESIAN_POINT('',(-8.4E-2,0.E0,0.E0));
#112=CARTESIAN_POINT('',(8.4E-2,0.E0,0.E0));
#113=VERTEX_POINT('',#111);
#114=VERTEX_POINT('',#112);
#115=CARTESIAN_POINT('',(6.399841304283E-2,0.E0,-3.75E-1));
#116=CARTESIAN_POINT('',(-6.399841304283E-2,0.E0,-3.75E-1));
#117=VERTEX_POINT('',#115);
#118=VERTEX_POINT('',#116);
#119=CARTESIAN_POINT('',(8.4E-2,0.E0,-3.549979170671E-1));
#120=CARTESIAN_POINT('',(-8.4E-2,0.E0,-3.549979170671E-1));
#121=VERTEX_POINT('',#119);
#122=VERTEX_POINT('',#120);
#123=CARTESIAN_POINT('',(7.875E-1,0.E0,3.61E-1));
#124=CARTESIAN_POINT('',(-7.875E-1,0.E0,3.61E-1));
#125=VERTEX_POINT('',#123);
#126=VERTEX_POINT('',#124);
#127=CARTESIAN_POINT('',(7.875E-1,0.E0,3.75E-1));
#128=CARTESIAN_POINT('',(-7.875E-1,0.E0,3.75E-1));
#129=VERTEX_POINT('',#127);
#130=VERTEX_POINT('',#128);
#131=CARTESIAN_POINT('',(0.E0,0.E0,0.E0));
#132=DIRECTION('',(0.E0,0.E0,1.E0));
#133=DIRECTION('',(1.E0,0.E0,0.E0));
#134=AXIS2_PLACEMENT_3D('',#131,#132,#133);
#135=PLANE('',#134);
#137=ORIENTED_EDGE('',*,*,#136,.T.);
#139=ORIENTED_EDGE('',*,*,#138,.T.);
#140=EDGE_LOOP('',(#137,#139));
#141=FACE_OUTER_BOUND('',#140,.F.);
#143=ORIENTED_EDGE('',*,*,#142,.F.);
#145=ORIENTED_EDGE('',*,*,#144,.F.);
#146=EDGE_LOOP('',(#143,#145));
#147=FACE_BOUND('',#146,.F.);
#148=ADVANCED_FACE('',(#141,#147),#135,.F.);
#149=CARTESIAN_POINT('',(0.E0,0.E0,0.E0));
#150=DIRECTION('',(0.E0,0.E0,1.E0));
#151=DIRECTION('',(1.E0,0.E0,0.E0));
#152=AXIS2_PLACEMENT_3D('',#149,#150,#151);
#153=CYLINDRICAL_SURFACE('',#152,8.27E-1);
#154=ORIENTED_EDGE('',*,*,#136,.F.);
#156=ORIENTED_EDGE('',*,*,#155,.T.);
#158=ORIENTED_EDGE('',*,*,#157,.T.);
#160=ORIENTED_EDGE('',*,*,#159,.F.);
#161=EDGE_LOOP('',(#154,#156,#158,#160));
#162=FACE_OUTER_BOUND('',#161,.F.);
#163=ADVANCED_FACE('',(#162),#153,.T.);
#164=CARTESIAN_POINT('',(0.E0,0.E0,0.E0));
#165=DIRECTION('',(0.E0,0.E0,1.E0));
#166=DIRECTION('',(1.E0,0.E0,0.E0));
#167=AXIS2_PLACEMENT_3D('',#164,#165,#166);
#168=CYLINDRICAL_SURFACE('',#167,8.27E-1);
#169=ORIENTED_EDGE('',*,*,#138,.F.);
#170=ORIENTED_EDGE('',*,*,#159,.T.);
#172=ORIENTED_EDGE('',*,*,#171,.T.);
#173=ORIENTED_EDGE('',*,*,#155,.F.);
#174=EDGE_LOOP('',(#169,#170,#172,#173));
#175=FACE_OUTER_BOUND('',#174,.F.);
#176=ADVANCED_FACE('',(#175),#168,.T.);
#177=CARTESIAN_POINT('',(0.E0,0.E0,3.75E-1));
#178=DIRECTION('',(0.E0,0.E0,1.E0));
#179=DIRECTION('',(1.E0,0.E0,0.E0));
#180=AXIS2_PLACEMENT_3D('',#177,#178,#179);
#181=PLANE('',#180);
#182=ORIENTED_EDGE('',*,*,#157,.F.);
#183=ORIENTED_EDGE('',*,*,#171,.F.);
#184=EDGE_LOOP('',(#182,#183));
#185=FACE_OUTER_BOUND('',#184,.F.);
#187=ORIENTED_EDGE('',*,*,#186,.T.);
#189=ORIENTED_EDGE('',*,*,#188,.T.);
#190=EDGE_LOOP('',(#187,#189));
#191=FACE_BOUND('',#190,.F.);
#192=ADVANCED_FACE('',(#185,#191),#181,.T.);
#193=CARTESIAN_POINT('',(0.E0,0.E0,3.75E-1));
#194=DIRECTION('',(0.E0,0.E0,1.E0));
#195=DIRECTION('',(1.E0,0.E0,0.E0));
#196=AXIS2_PLACEMENT_3D('',#193,#194,#195);
#197=CYLINDRICAL_SURFACE('',#196,7.875E-1);
#198=ORIENTED_EDGE('',*,*,#186,.F.);
#200=ORIENTED_EDGE('',*,*,#199,.T.);
#202=ORIENTED_EDGE('',*,*,#201,.T.);
#204=ORIENTED_EDGE('',*,*,#203,.F.);
#205=EDGE_LOOP('',(#198,#200,#202,#204));
#206=FACE_OUTER_BOUND('',#205,.F.);
#207=ADVANCED_FACE('',(#206),#197,.F.);
#208=CARTESIAN_POINT('',(0.E0,0.E0,3.75E-1));
#209=DIRECTION('',(0.E0,0.E0,1.E0));
#210=DIRECTION('',(1.E0,0.E0,0.E0));
#211=AXIS2_PLACEMENT_3D('',#208,#209,#210);
#212=CYLINDRICAL_SURFACE('',#211,7.875E-1);
#213=ORIENTED_EDGE('',*,*,#188,.F.);
#214=ORIENTED_EDGE('',*,*,#203,.T.);
#216=ORIENTED_EDGE('',*,*,#215,.T.);
#217=ORIENTED_EDGE('',*,*,#199,.F.);
#218=EDGE_LOOP('',(#213,#214,#216,#217));
#219=FACE_OUTER_BOUND('',#218,.F.);
#220=ADVANCED_FACE('',(#219),#212,.F.);
#221=CARTESIAN_POINT('',(0.E0,0.E0,3.61E-1));
#222=DIRECTION('',(0.E0,0.E0,1.E0));
#223=DIRECTION('',(1.E0,0.E0,0.E0));
#224=AXIS2_PLACEMENT_3D('',#221,#222,#223);
#225=PLANE('',#224);
#226=ORIENTED_EDGE('',*,*,#201,.F.);
#227=ORIENTED_EDGE('',*,*,#215,.F.);
#228=EDGE_LOOP('',(#226,#227));
#229=FACE_OUTER_BOUND('',#228,.F.);
#230=ADVANCED_FACE('',(#229),#225,.T.);
#231=CARTESIAN_POINT('',(0.E0,0.E0,0.E0));
#232=DIRECTION('',(0.E0,0.E0,1.E0));
#233=DIRECTION('',(-1.E0,0.E0,0.E0));
#234=AXIS2_PLACEMENT_3D('',#231,#232,#233);
#235=CYLINDRICAL_SURFACE('',#234,8.4E-2);
#237=ORIENTED_EDGE('',*,*,#236,.T.);
#239=ORIENTED_EDGE('',*,*,#238,.F.);
#240=ORIENTED_EDGE('',*,*,#142,.T.);
#242=ORIENTED_EDGE('',*,*,#241,.T.);
#243=EDGE_LOOP('',(#237,#239,#240,#242));
#244=FACE_OUTER_BOUND('',#243,.F.);
#245=ADVANCED_FACE('',(#244),#235,.T.);
#246=CARTESIAN_POINT('',(0.E0,0.E0,-3.649989465775E-1));
#247=DIRECTION('',(0.E0,0.E0,1.E0));
#248=DIRECTION('',(0.E0,-1.E0,0.E0));
#249=AXIS2_PLACEMENT_3D('',#246,#247,#248);
#250=CONICAL_SURFACE('',#249,7.399921847720E-2,4.499928963222E1);
#252=ORIENTED_EDGE('',*,*,#251,.T.);
#254=ORIENTED_EDGE('',*,*,#253,.T.);
#255=ORIENTED_EDGE('',*,*,#236,.F.);
#257=ORIENTED_EDGE('',*,*,#256,.F.);
#258=EDGE_LOOP('',(#252,#254,#255,#257));
#259=FACE_OUTER_BOUND('',#258,.F.);
#260=ADVANCED_FACE('',(#259),#250,.T.);
#261=CARTESIAN_POINT('',(0.E0,0.E0,-3.75E-1));
#262=DIRECTION('',(0.E0,0.E0,1.E0));
#263=DIRECTION('',(-1.E0,0.E0,0.E0));
#264=AXIS2_PLACEMENT_3D('',#261,#262,#263);
#265=PLANE('',#264);
#266=ORIENTED_EDGE('',*,*,#251,.F.);
#268=ORIENTED_EDGE('',*,*,#267,.F.);
#269=EDGE_LOOP('',(#266,#268));
#270=FACE_OUTER_BOUND('',#269,.F.);
#271=ADVANCED_FACE('',(#270),#265,.F.);
#272=CARTESIAN_POINT('',(0.E0,0.E0,-3.649989465775E-1));
#273=DIRECTION('',(0.E0,0.E0,1.E0));
#274=DIRECTION('',(0.E0,-1.E0,0.E0));
#275=AXIS2_PLACEMENT_3D('',#272,#273,#274);
#276=CONICAL_SURFACE('',#275,7.399921847720E-2,4.499928963222E1);
#277=ORIENTED_EDGE('',*,*,#267,.T.);
#278=ORIENTED_EDGE('',*,*,#256,.T.);
#280=ORIENTED_EDGE('',*,*,#279,.F.);
#281=ORIENTED_EDGE('',*,*,#253,.F.);
#282=EDGE_LOOP('',(#277,#278,#280,#281));
#283=FACE_OUTER_BOUND('',#282,.F.);
#284=ADVANCED_FACE('',(#283),#276,.T.);
#285=CARTESIAN_POINT('',(0.E0,0.E0,0.E0));
#286=DIRECTION('',(0.E0,0.E0,1.E0));
#287=DIRECTION('',(-1.E0,0.E0,0.E0));
#288=AXIS2_PLACEMENT_3D('',#285,#286,#287);
#289=CYLINDRICAL_SURFACE('',#288,8.4E-2);
#290=ORIENTED_EDGE('',*,*,#279,.T.);
#291=ORIENTED_EDGE('',*,*,#241,.F.);
#292=ORIENTED_EDGE('',*,*,#144,.T.);
#293=ORIENTED_EDGE('',*,*,#238,.T.);
#294=EDGE_LOOP('',(#290,#291,#292,#293));
#295=FACE_OUTER_BOUND('',#294,.F.);
#296=ADVANCED_FACE('',(#295),#289,.T.);
#297=CLOSED_SHELL('',(#148,#163,#176,#192,#207,#220,#230,#245,#260,#271,#284,
#296));
#298=MANIFOLD_SOLID_BREP('',#297);
#299=DIMENSIONAL_EXPONENTS(1.E0,0.E0,0.E0,0.E0,0.E0,0.E0,0.E0);
#300=(LENGTH_UNIT()NAMED_UNIT(*)SI_UNIT(.MILLI.,.METRE.));
#301=LENGTH_MEASURE_WITH_UNIT(LENGTH_MEASURE(2.54E1),#300);
#302=(CONVERSION_BASED_UNIT('INCH',#301)LENGTH_UNIT()NAMED_UNIT(#299));
#303=DIMENSIONAL_EXPONENTS(0.E0,0.E0,0.E0,0.E0,0.E0,0.E0,0.E0);
#304=(NAMED_UNIT(*)PLANE_ANGLE_UNIT()SI_UNIT($,.RADIAN.));
#305=PLANE_ANGLE_MEASURE_WITH_UNIT(PLANE_ANGLE_MEASURE(1.745329251994E-2),#304);
#306=(CONVERSION_BASED_UNIT('DEGREE',#305)NAMED_UNIT(#303)PLANE_ANGLE_UNIT());
#307=(NAMED_UNIT(*)SI_UNIT($,.STERADIAN.)SOLID_ANGLE_UNIT());
#308=UNCERTAINTY_MEASURE_WITH_UNIT(LENGTH_MEASURE(2.456308138077E-4),#302,
'closure',
'Maximum model space distance between geometric entities at asserted connectivities');
#309=(GEOMETRIC_REPRESENTATION_CONTEXT(3)GLOBAL_UNCERTAINTY_ASSIGNED_CONTEXT((
#308))GLOBAL_UNIT_ASSIGNED_CONTEXT((#302,#306,#307))REPRESENTATION_CONTEXT
('ID1','3'));
#311=APPLICATION_CONTEXT(
'CONFIGURATION CONTROLLED 3D DESIGNS OF MECHANICAL PARTS AND ASSEMBLIES');
#312=APPLICATION_PROTOCOL_DEFINITION('international standard',
'config_control_design',1994,#311);
#313=DESIGN_CONTEXT('',#311,'design');
#314=MECHANICAL_CONTEXT('',#311,'mechanical');
#315=PRODUCT('158506_SW','158506_SW','NOT SPECIFIED',(#314));
#316=PRODUCT_DEFINITION_FORMATION_WITH_SPECIFIED_SOURCE('','LAST_VERSION',#315,
.MADE.);
#320=PRODUCT_CATEGORY('part','');
#321=PRODUCT_RELATED_PRODUCT_CATEGORY('detail','',(#315));
#322=PRODUCT_CATEGORY_RELATIONSHIP('','',#320,#321);
#323=SECURITY_CLASSIFICATION_LEVEL('unclassified');
#324=SECURITY_CLASSIFICATION('','',#323);
#325=CC_DESIGN_SECURITY_CLASSIFICATION(#324,(#316));
#326=APPROVAL_STATUS('approved');
#327=APPROVAL(#326,'');
#328=CC_DESIGN_APPROVAL(#327,(#324,#316,#317));
#329=CALENDAR_DATE(111,6,10);
#330=COORDINATED_UNIVERSAL_TIME_OFFSET(5,0,.BEHIND.);
#331=LOCAL_TIME(13,3,9.E0,#330);
#332=DATE_AND_TIME(#329,#331);
#333=APPROVAL_DATE_TIME(#332,#327);
#334=DATE_TIME_ROLE('creation_date');
#335=CC_DESIGN_DATE_AND_TIME_ASSIGNMENT(#332,#334,(#317));
#336=DATE_TIME_ROLE('classification_date');
#337=CC_DESIGN_DATE_AND_TIME_ASSIGNMENT(#332,#336,(#324));
#338=PERSON('UNSPECIFIED','UNSPECIFIED',$,$,$,$);
#339=ORGANIZATION('UNSPECIFIED','UNSPECIFIED','UNSPECIFIED');
#340=PERSON_AND_ORGANIZATION(#338,#339);
#341=APPROVAL_ROLE('approver');
#342=APPROVAL_PERSON_ORGANIZATION(#340,#327,#341);
#343=PERSON_AND_ORGANIZATION_ROLE('creator');
#344=CC_DESIGN_PERSON_AND_ORGANIZATION_ASSIGNMENT(#340,#343,(#316,#317));
#345=PERSON_AND_ORGANIZATION_ROLE('design_supplier');
#346=CC_DESIGN_PERSON_AND_ORGANIZATION_ASSIGNMENT(#340,#345,(#316));
#347=PERSON_AND_ORGANIZATION_ROLE('classification_officer');
#348=CC_DESIGN_PERSON_AND_ORGANIZATION_ASSIGNMENT(#340,#347,(#324));
#349=PERSON_AND_ORGANIZATION_ROLE('design_owner');
#350=CC_DESIGN_PERSON_AND_ORGANIZATION_ASSIGNMENT(#340,#349,(#315));
#5=CIRCLE('',#4,8.27E-1);
#10=CIRCLE('',#9,8.27E-1);
#15=CIRCLE('',#14,8.4E-2);
#20=CIRCLE('',#19,8.4E-2);
#33=CIRCLE('',#32,8.27E-1);
#38=CIRCLE('',#37,8.27E-1);
#43=CIRCLE('',#42,7.875E-1);
#48=CIRCLE('',#47,7.875E-1);
#61=CIRCLE('',#60,7.875E-1);
#66=CIRCLE('',#65,7.875E-1);
#71=CIRCLE('',#70,8.4E-2);
#84=CIRCLE('',#83,6.399841304283E-2);
#89=CIRCLE('',#88,6.399841304283E-2);
#98=CIRCLE('',#97,8.4E-2);
#136=EDGE_CURVE('',#105,#106,#5,.T.);
#138=EDGE_CURVE('',#106,#105,#10,.T.);
#142=EDGE_CURVE('',#113,#114,#15,.T.);
#144=EDGE_CURVE('',#114,#113,#20,.T.);
#155=EDGE_CURVE('',#105,#109,#24,.T.);
#157=EDGE_CURVE('',#109,#110,#33,.T.);
#159=EDGE_CURVE('',#106,#110,#28,.T.);
#171=EDGE_CURVE('',#110,#109,#38,.T.);
#186=EDGE_CURVE('',#129,#130,#43,.T.);
#188=EDGE_CURVE('',#130,#129,#48,.T.);
#199=EDGE_CURVE('',#129,#125,#52,.T.);
#201=EDGE_CURVE('',#125,#126,#61,.T.);
#203=EDGE_CURVE('',#130,#126,#56,.T.);
#215=EDGE_CURVE('',#126,#125,#66,.T.);
#236=EDGE_CURVE('',#121,#122,#71,.T.);
#238=EDGE_CURVE('',#113,#122,#75,.T.);
#241=EDGE_CURVE('',#114,#121,#102,.T.);
#251=EDGE_CURVE('',#117,#118,#84,.T.);
#253=EDGE_CURVE('',#118,#122,#93,.T.);
#256=EDGE_CURVE('',#117,#121,#79,.T.);
#267=EDGE_CURVE('',#118,#117,#89,.T.);
#279=EDGE_CURVE('',#122,#121,#98,.T.);
#310=ADVANCED_BREP_SHAPE_REPRESENTATION('',(#298),#309);
#317=PRODUCT_DEFINITION('design','',#316,#313);
#318=PRODUCT_DEFINITION_SHAPE('','SHAPE FOR 158506_SW.',#317);
#319=SHAPE_DEFINITION_REPRESENTATION(#318,#310);
ENDSEC;
END-ISO-10303-21;
