 PTC IGES file: 158504.igs                                              S      1
1H,,1H;,9H158504_SW,10H158504.igs,                                      G      1
49HPro/ENGINEER by Parametric Technology Corporation,7H2009141,32,38,7, G      2
38,15,9H158504_SW,1.,1,4HINCH,32768,0.5,15H20111006.124313,0.000229647, G      3
2.29656,13Hbanengservice,7HUnknown,10,0,15H20111006.124313;             G      4
     314       1       1       1       0       0       0       001000200D      1
     314       0       4       1       0                   COLOR       1D      2
     314       2       1       1       0       0       0       001000200D      3
     314       0       1       1       0                   COLOR       2D      4
     314       3       1       1       0       0       0       001000200D      5
     314       0       1       1       0                   COLOR       3D      6
     314       4       1       1       0       0       0       001000200D      7
     314       0       1       1       0                   COLOR       4D      8
     314       5       1       1       0       0       0       001000200D      9
     314       0       8       1       0                   COLOR       5D     10
     314       6       1       1       0       0       0       001000200D     11
     314       0       8       1       0                   COLOR       6D     12
     314       7       1       1       0       0       0       001000200D     13
     314       0       8       1       0                   COLOR       7D     14
     314       8       1       1       0       0       0       001000200D     15
     314       0       5       1       0                   COLOR       8D     16
     314       9       1       1       0       0       0       001000200D     17
     314       0       8       1       0                   COLOR       9D     18
     124      10       1       1       0       0       0       001000000D     19
     124       0       0       1       0                   XFORM       1D     20
     100      11       1       1       0       0      19       001010000D     21
     100       0       0       1       0                     ARC       1D     22
     110      12       1       1       0       0       0       001010000D     23
     110       0       0       2       0                    LINE       1D     24
     110      14       1       1       0       0       0       001010000D     25
     110       0       0       2       0                    LINE       2D     26
     124      16       1       1       0       0       0       001000000D     27
     124       0       0       1       0                   XFORM       2D     28
     100      17       1       1       0       0      27       001010000D     29
     100       0       0       1       0                     ARC       2D     30
     124      18       1       1       0       0       0       001000000D     31
     124       0       0       2       0                   XFORM       3D     32
     100      20       1       1       0       0      31       001010000D     33
     100       0       0       1       0                     ARC       3D     34
     124      21       1       1       0       0       0       001000000D     35
     124       0       0       2       0                   XFORM       4D     36
     100      23       1       1       0       0      35       001010000D     37
     100       0       0       1       0                     ARC       4D     38
     124      24       1       1       0       0       0       001000000D     39
     124       0       0       2       0                   XFORM       5D     40
     100      26       1       1       0       0      39       001010000D     41
     100       0       0       1       0                     ARC       5D     42
     110      27       1       1       0       0       0       001010000D     43
     110       0       0       2       0                    LINE       3D     44
     110      29       1       1       0       0       0       001010000D     45
     110       0       0       2       0                    LINE       4D     46
     124      31       1       1       0       0       0       001000000D     47
     124       0       0       2       0                   XFORM       6D     48
     100      33       1       1       0       0      47       001010000D     49
     100       0       0       1       0                     ARC       6D     50
     124      34       1       1       0       0       0       001000000D     51
     124       0       0       2       0                   XFORM       7D     52
     100      36       1       1       0       0      51       001010000D     53
     100       0       0       1       0                     ARC       7D     54
     124      37       1       1       0       0       0       001000000D     55
     124       0       0       2       0                   XFORM       8D     56
     100      39       1       1       0       0      55       001010000D     57
     100       0       0       1       0                     ARC       8D     58
     124      40       1       1       0       0       0       001000000D     59
     124       0       0       2       0                   XFORM       9D     60
     100      42       1       1       0       0      59       001010000D     61
     100       0       0       1       0                     ARC       9D     62
     110      43       1       1       0       0       0       001010000D     63
     110       0       0       2       0                    LINE       5D     64
     110      45       1       1       0       0       0       001010000D     65
     110       0       0       2       0                    LINE       6D     66
     124      47       1       1       0       0       0       001000000D     67
     124       0       0       2       0                   XFORM      10D     68
     100      49       1       1       0       0      67       001010000D     69
     100       0       0       1       0                     ARC      10D     70
     124      50       1       1       0       0       0       001000000D     71
     124       0       0       2       0                   XFORM      11D     72
     100      52       1       1       0       0      71       001010000D     73
     100       0       0       1       0                     ARC      11D     74
     124      53       1       1       0       0       0       001000000D     75
     124       0       0       2       0                   XFORM      12D     76
     100      55       1       1       0       0      75       001010000D     77
     100       0       0       1       0                     ARC      12D     78
     502      56       1       1       0       0       0       001010000D     79
     502       0       0       8       1                  VERTEX       1D     80
     504      64       1       1       0       0       0       000010001D     81
     504       0       0       4       1                    EDGE       1D     82
     128      68       1       1       0       0       0       001010000D     83
     128       0      -9       8       0                  SPLSRF       1D     84
     508      76       1       1       0       0       0       001010000D     85
     508       0       0       1       1                EDGELOOP       1D     86
     510      77       1       1       0       0       0       000010000D     87
     510       0      -9       1       1                    FACE       1D     88
     110      78       1       1       0       0       0       001010000D     89
     110       0      -9       1       0                    LINE       7D     90
     110      79       1       1       0       0       0       001010000D     91
     110       0      -9       2       0                    LINE       8D     92
     120      81       1       1       0       0       0       001010000D     93
     120       0      -9       1       0                    SREV       1D     94
     508      82       1       1       0       0       0       001010000D     95
     508       0       0       1       1                EDGELOOP       2D     96
     510      83       1       1       0       0       0       000010000D     97
     510       0      -9       1       1                    FACE       2D     98
     110      84       1       1       0       0       0       001010000D     99
     110       0      -9       1       0                    LINE       9D    100
     110      85       1       1       0       0       0       001010000D    101
     110       0      -9       2       0                    LINE      10D    102
     120      87       1       1       0       0       0       001010000D    103
     120       0      -9       1       0                    SREV       2D    104
     508      88       1       1       0       0       0       001010000D    105
     508       0       0       1       1                EDGELOOP       3D    106
     510      89       1       1       0       0       0       000010000D    107
     510       0      -9       1       1                    FACE       3D    108
     128      90       1       1       0       0       0       001010000D    109
     128       0      -9       9       0                  SPLSRF       2D    110
     508      99       1       1       0       0       0       001010000D    111
     508       0       0       1       1                EDGELOOP       4D    112
     508     100       1       1       0       0       0       001010000D    113
     508       0       0       1       1                EDGELOOP       5D    114
     510     101       1       1       0       0       0       000010000D    115
     510       0      -9       1       1                    FACE       4D    116
     110     102       1       1       0       0       0       001010000D    117
     110       0      -9       1       0                    LINE      11D    118
     110     103       1       1       0       0       0       001010000D    119
     110       0      -9       2       0                    LINE      12D    120
     120     105       1       1       0       0       0       001010000D    121
     120       0      -9       1       0                    SREV       3D    122
     508     106       1       1       0       0       0       001010000D    123
     508       0       0       1       1                EDGELOOP       6D    124
     510     107       1       1       0       0       0       000010000D    125
     510       0      -9       1       1                    FACE       5D    126
     110     108       1       1       0       0       0       001010000D    127
     110       0      -9       1       0                    LINE      13D    128
     110     109       1       1       0       0       0       001010000D    129
     110       0      -9       2       0                    LINE      14D    130
     120     111       1       1       0       0       0       001010000D    131
     120       0      -9       1       0                    SREV       4D    132
     508     112       1       1       0       0       0       001010000D    133
     508       0       0       1       1                EDGELOOP       7D    134
     510     113       1       1       0       0       0       000010000D    135
     510       0      -9       1       1                    FACE       6D    136
     128     114       1       1       0       0       0       001010000D    137
     128       0      -9       9       0                  SPLSRF       3D    138
     508     123       1       1       0       0       0       001010000D    139
     508       0       0       1       1                EDGELOOP       8D    140
     508     124       1       1       0       0       0       001010000D    141
     508       0       0       1       1                EDGELOOP       9D    142
     510     125       1       1       0       0       0       000010000D    143
     510       0      -9       1       1                    FACE       7D    144
     110     126       1       1       0       0       0       001010000D    145
     110       0      -9       1       0                    LINE      15D    146
     110     127       1       1       0       0       0       001010000D    147
     110       0      -9       2       0                    LINE      16D    148
     120     129       1       1       0       0       0       001010000D    149
     120       0      -9       1       0                    SREV       5D    150
     508     130       1       1       0       0       0       001010000D    151
     508       0       0       1       1                EDGELOOP      10D    152
     510     131       1       1       0       0       0       000010000D    153
     510       0      -9       1       1                    FACE       8D    154
     110     132       1       1       0       0       0       001010000D    155
     110       0      -9       1       0                    LINE      17D    156
     110     133       1       1       0       0       0       001010000D    157
     110       0      -9       2       0                    LINE      18D    158
     120     135       1       1       0       0       0       001010000D    159
     120       0      -9       1       0                    SREV       6D    160
     508     136       1       1       0       0       0       001010000D    161
     508       0       0       1       1                EDGELOOP      11D    162
     510     137       1       1       0       0       0       000010000D    163
     510       0      -9       1       1                    FACE       9D    164
     128     138       1       1       0       0       0       001010000D    165
     128       0       8       9       0                  SPLSRF       4D    166
     508     147       1       1       0       0       0       001010000D    167
     508       0       0       1       1                EDGELOOP      12D    168
     510     148       1       1       0       0       0       000010000D    169
     510       0       8       1       1                    FACE      10D    170
     514     149       1       1       0       0       0       000010000D    171
     514       0       0       2       1                   SHELL       1D    172
     186     151       1       1       0       0       0       000000000D    173
     186       0       0       1       0                    MSBR       1D    174
314,1.1D0,1.2D0,1D2;                                                   1P      1
314,1.1D1,1.1D1,1.1D1;                                                 3P      2
314,3.92D1,1.2D0,1.2D0;                                                5P      3
314,4.1D1,0D0,2.2D1;                                                   7P      4
314,5.37D1,7.45D1,8.04D1;                                              9P      5
314,8.784D1,9.49D1,1D2;                                               11P      6
314,9.6D1,9.6D1,9.6D1;                                                13P      7
314,9.8D1,6.27D1,0D0;                                                 15P      8
314,1D2,1D2,9.49D1;                                                   17P      9
124,0D0,1D0,0D0,0D0,1D0,0D0,0D0,0D0,0D0,0D0,-1D0,0D0;                 19P     10
100,0D0,0D0,0D0,8.070866141732D-1,0D0,-8.070866141732D-1,0D0;         21P     11
110,0D0,8.070866141732D-1,0D0,0D0,8.070866141732D-1,                  23P     12
1.181102362205D-1;                                                    23P     13
110,0D0,-8.070866141732D-1,0D0,0D0,-8.070866141732D-1,                25P     14
1.181102362205D-1;                                                    25P     15
124,0D0,-1D0,0D0,0D0,1D0,0D0,0D0,0D0,0D0,0D0,1D0,0D0;                 27P     16
100,0D0,0D0,0D0,8.070866141732D-1,0D0,-8.070866141732D-1,0D0;         29P     17
124,0D0,-1D0,0D0,0D0,1D0,0D0,0D0,0D0,0D0,0D0,1D0,                     31P     18
1.181102362205D-1;                                                    31P     19
100,0D0,0D0,0D0,8.070866141732D-1,0D0,-8.070866141732D-1,0D0;         33P     20
124,0D0,1D0,0D0,0D0,1D0,0D0,0D0,0D0,0D0,0D0,-1D0,                     35P     21
1.181102362205D-1;                                                    35P     22
100,0D0,0D0,0D0,8.070866141732D-1,0D0,-8.070866141732D-1,0D0;         37P     23
124,0D0,1D0,0D0,0D0,1D0,0D0,0D0,0D0,0D0,0D0,-1D0,                     39P     24
1.181102362205D-1;                                                    39P     25
100,0D0,0D0,0D0,7.578740157480D-1,0D0,-7.578740157480D-1,0D0;         41P     26
110,0D0,7.578740157480D-1,1.181102362205D-1,0D0,                      43P     27
7.578740157480D-1,2.480314960630D-1;                                  43P     28
110,0D0,-7.578740157480D-1,1.181102362205D-1,0D0,                     45P     29
-7.578740157480D-1,2.480314960630D-1;                                 45P     30
124,0D0,-1D0,0D0,0D0,1D0,0D0,0D0,0D0,0D0,0D0,1D0,                     47P     31
1.181102362205D-1;                                                    47P     32
100,0D0,0D0,0D0,7.578740157480D-1,0D0,-7.578740157480D-1,0D0;         49P     33
124,0D0,-1D0,0D0,0D0,1D0,0D0,0D0,0D0,0D0,0D0,1D0,                     51P     34
2.480314960630D-1;                                                    51P     35
100,0D0,0D0,0D0,7.578740157480D-1,0D0,-7.578740157480D-1,0D0;         53P     36
124,0D0,1D0,0D0,0D0,1D0,0D0,0D0,0D0,0D0,0D0,-1D0,                     55P     37
2.480314960630D-1;                                                    55P     38
100,0D0,0D0,0D0,7.578740157480D-1,0D0,-7.578740157480D-1,0D0;         57P     39
124,0D0,1D0,0D0,0D0,1D0,0D0,0D0,0D0,0D0,0D0,-1D0,                     59P     40
2.480314960630D-1;                                                    59P     41
100,0D0,0D0,0D0,7.381889763780D-1,0D0,-7.381889763780D-1,0D0;         61P     42
110,0D0,7.381889763780D-1,2.480314960630D-1,0D0,                      63P     43
7.381889763780D-1,2.440944881890D-1;                                  63P     44
110,0D0,-7.381889763780D-1,2.480314960630D-1,0D0,                     65P     45
-7.381889763780D-1,2.440944881890D-1;                                 65P     46
124,0D0,-1D0,0D0,0D0,1D0,0D0,0D0,0D0,0D0,0D0,1D0,                     67P     47
2.480314960630D-1;                                                    67P     48
100,0D0,0D0,0D0,7.381889763780D-1,0D0,-7.381889763780D-1,0D0;         69P     49
124,0D0,-1D0,0D0,0D0,1D0,0D0,0D0,0D0,0D0,0D0,1D0,                     71P     50
2.440944881890D-1;                                                    71P     51
100,0D0,0D0,0D0,7.381889763780D-1,0D0,-7.381889763780D-1,0D0;         73P     52
124,0D0,1D0,0D0,0D0,1D0,0D0,0D0,0D0,0D0,0D0,-1D0,                     75P     53
2.440944881890D-1;                                                    75P     54
100,0D0,0D0,0D0,7.381889763780D-1,0D0,-7.381889763780D-1,0D0;         77P     55
502,12,0D0,7.578740157480D-1,1.181102362205D-1,0D0,                   79P     56
7.578740157480D-1,2.480314960630D-1,0D0,-7.578740157480D-1,           79P     57
1.181102362205D-1,0D0,-7.578740157480D-1,2.480314960630D-1,0D0,       79P     58
8.070866141732D-1,0D0,0D0,8.070866141732D-1,1.181102362205D-1,        79P     59
0D0,-8.070866141732D-1,0D0,0D0,-8.070866141732D-1,                    79P     60
1.181102362205D-1,0D0,7.381889763780D-1,2.480314960630D-1,0D0,        79P     61
7.381889763780D-1,2.440944881890D-1,0D0,-7.381889763780D-1,           79P     62
2.480314960630D-1,0D0,-7.381889763780D-1,2.440944881890D-1;           79P     63
504,18,43,79,1,79,2,45,79,3,79,4,23,79,5,79,6,25,79,7,79,8,21,        81P     64
79,5,79,7,37,79,6,79,8,41,79,1,79,3,57,79,2,79,4,29,79,5,79,7,        81P     65
33,79,6,79,8,49,79,1,79,3,53,79,2,79,4,63,79,9,79,10,65,79,11,        81P     66
79,12,61,79,9,79,11,77,79,10,79,12,69,79,9,79,11,73,79,10,79,12;      81P     67
128,1,1,1,1,0,0,1,0,0,-8.393700787402D-1,-8.393700787402D-1,          83P     68
8.393700787402D-1,8.393700787402D-1,-8.399484855995D-1,               83P     69
-8.399484855995D-1,8.399484855995D-1,8.399484855995D-1,1D0,1D0,       83P     70
1D0,1D0,8.399484855995D-1,8.393700787402D-1,0D0,                      83P     71
8.399484855995D-1,-8.393700787402D-1,0D0,-8.399484855995D-1,          83P     72
8.393700787402D-1,0D0,-8.399484855995D-1,-8.393700787402D-1,0D0,      83P     73
-8.393700787402D-1,8.393700787402D-1,-8.399484855995D-1,              83P     74
8.399484855995D-1;                                                    83P     75
508,2,0,81,5,0,0,0,81,9,1,0;                                          85P     76
510,83,1,0,85;                                                        87P     77
110,0D0,0D0,2.604330708661D-1,0D0,0D0,-7.395669291339D-1;             89P     78
110,0D0,-8.070866141732D-1,1.208661098714D-1,0D0,                     91P     79
-8.070866141732D-1,-2.755873650942D-3;                                91P     80
120,89,91,-3.204424506662D0,6.283185307180D-2;                        93P     81
508,4,0,81,3,0,0,0,81,5,1,0,0,81,4,1,0,0,81,6,0,0;                    95P     82
510,93,1,0,95;                                                        97P     83
110,0D0,0D0,2.604330708661D-1,0D0,0D0,-7.395669291339D-1;             99P     84
110,0D0,-8.070866141732D-1,1.208661098714D-1,0D0,                    101P     85
-8.070866141732D-1,-2.755873650942D-3;                               101P     86
120,99,101,-6.346017160251D0,-3.078760800518D0;                      103P     87
508,4,0,81,3,1,0,0,81,10,1,0,0,81,4,0,0,0,81,9,0,0;                  105P     88
510,103,1,0,105;                                                     107P     89
128,1,1,1,1,0,0,1,0,0,-8.393700787402D-1,-8.393700787402D-1,         109P     90
8.393700787402D-1,8.393700787402D-1,-8.399484855995D-1,              109P     91
-8.399484855995D-1,8.399484855995D-1,8.399484855995D-1,1D0,1D0,      109P     92
1D0,1D0,8.399484855995D-1,8.393700787402D-1,1.181102362205D-1,       109P     93
8.399484855995D-1,-8.393700787402D-1,1.181102362205D-1,              109P     94
-8.399484855995D-1,8.393700787402D-1,1.181102362205D-1,              109P     95
-8.399484855995D-1,-8.393700787402D-1,1.181102362205D-1,             109P     96
-8.393700787402D-1,8.393700787402D-1,-8.399484855995D-1,             109P     97
8.399484855995D-1;                                                   109P     98
508,2,0,81,10,0,0,0,81,6,1,0;                                        111P     99
508,2,0,81,7,0,0,0,81,11,1,0;                                        113P    100
510,109,2,0,111,113;                                                 115P    101
110,0D0,0D0,2.604330708661D-1,0D0,0D0,-7.395669291339D-1;            117P    102
110,0D0,-7.578740157480D-1,2.507873697139D-1,0D0,                    119P    103
-7.578740157480D-1,1.153543625695D-1;                                119P    104
120,117,119,-3.204424506662D0,6.283185307180D-2;                     121P    105
508,4,0,81,1,0,0,0,81,7,1,0,0,81,2,1,0,0,81,8,0,0;                   123P    106
510,121,1,0,123;                                                     125P    107
110,0D0,0D0,2.604330708661D-1,0D0,0D0,-7.395669291339D-1;            127P    108
110,0D0,-7.578740157480D-1,2.507873697139D-1,0D0,                    129P    109
-7.578740157480D-1,1.153543625695D-1;                                129P    110
120,127,129,-6.346017160251D0,-3.078760800518D0;                     131P    111
508,4,0,81,1,1,0,0,81,12,1,0,0,81,2,0,0,0,81,11,0,0;                 133P    112
510,131,1,0,133;                                                     135P    113
128,1,1,1,1,0,0,1,0,0,-7.881889763780D-1,-7.881889763780D-1,         137P    114
7.881889763780D-1,7.881889763780D-1,-7.887315930591D-1,              137P    115
-7.887315930591D-1,7.887315930591D-1,7.887315930591D-1,1D0,1D0,      137P    116
1D0,1D0,7.887315930591D-1,7.881889763780D-1,2.480314960630D-1,       137P    117
7.887315930591D-1,-7.881889763780D-1,2.480314960630D-1,              137P    118
-7.887315930591D-1,7.881889763780D-1,2.480314960630D-1,              137P    119
-7.887315930591D-1,-7.881889763780D-1,2.480314960630D-1,             137P    120
-7.881889763780D-1,7.881889763780D-1,-7.887315930591D-1,             137P    121
7.887315930591D-1;                                                   137P    122
508,2,0,81,12,0,0,0,81,8,1,0;                                        139P    123
508,2,0,81,15,0,0,0,81,17,1,0;                                       141P    124
510,137,2,0,139,141;                                                 143P    125
110,0D0,0D0,2.604330708661D-1,0D0,0D0,-7.395669291339D-1;            145P    126
110,0D0,-7.381889763780D-1,2.507873697139D-1,0D0,                    147P    127
-7.381889763780D-1,2.413386145380D-1;                                147P    128
120,145,147,-3.204424506662D0,6.283185307180D-2;                     149P    129
508,4,0,81,13,0,0,0,81,15,1,0,0,81,14,1,0,0,81,16,0,0;               151P    130
510,149,1,0,151;                                                     153P    131
110,0D0,0D0,2.604330708661D-1,0D0,0D0,-7.395669291339D-1;            155P    132
110,0D0,-7.381889763780D-1,2.507873697139D-1,0D0,                    157P    133
-7.381889763780D-1,2.413386145380D-1;                                157P    134
120,155,157,-6.346017160251D0,-3.078760800518D0;                     159P    135
508,4,0,81,13,1,0,0,81,18,1,0,0,81,14,0,0,0,81,17,0,0;               161P    136
510,159,1,0,161;                                                     163P    137
128,1,1,1,1,0,0,1,0,0,-7.677165354331D-1,-7.677165354331D-1,         165P    138
7.677165354331D-1,7.677165354331D-1,-7.682455968898D-1,              165P    139
-7.682455968898D-1,7.682455968898D-1,7.682455968898D-1,1D0,1D0,      165P    140
1D0,1D0,7.682455968898D-1,7.677165354331D-1,2.440944881890D-1,       165P    141
7.682455968898D-1,-7.677165354331D-1,2.440944881890D-1,              165P    142
-7.682455968898D-1,7.677165354331D-1,2.440944881890D-1,              165P    143
-7.682455968898D-1,-7.677165354331D-1,2.440944881890D-1,             165P    144
-7.677165354331D-1,7.677165354331D-1,-7.682455968898D-1,             165P    145
7.682455968898D-1;                                                   165P    146
508,2,0,81,18,0,0,0,81,16,1,0;                                       167P    147
510,165,1,0,167;                                                     169P    148
514,10,87,1,97,1,107,1,115,0,125,1,135,1,143,0,153,0,163,0,169,      171P    149
0;                                                                   171P    150
186,171,1,0;                                                         173P    151
S      1G      4D    174P    151                                        T      1
