 PTC IGES file: 158500.igs                                              S      1
1H,,1H;,9H158500_SW,10H158500.igs,                                      G      1
49HPro/ENGINEER by Parametric Technology Corporation,7H2009141,32,38,7, G      2
38,15,9H158500_SW,1.,1,4HINCH,32768,0.5,15H20111006.124114,0.000196666, G      3
1.96674,13Hbanengservice,7HUnknown,10,0,15H20111006.124114;             G      4
     314       1       1       1       0       0       0       001000200D      1
     314       0       4       1       0                   COLOR       1D      2
     314       2       1       1       0       0       0       001000200D      3
     314       0       1       1       0                   COLOR       2D      4
     314       3       1       1       0       0       0       001000200D      5
     314       0       1       1       0                   COLOR       3D      6
     314       4       1       1       0       0       0       001000200D      7
     314       0       1       1       0                   COLOR       4D      8
     314       5       1       1       0       0       0       001000200D      9
     314       0       8       1       0                   COLOR       5D     10
     314       6       1       1       0       0       0       001000200D     11
     314       0       8       1       0                   COLOR       6D     12
     314       7       1       1       0       0       0       001000200D     13
     314       0       5       1       0                   COLOR       7D     14
     314       8       1       1       0       0       0       001000200D     15
     314       0       8       1       0                   COLOR       8D     16
     110       9       1       1       0       0       0       001010000D     17
     110       0       0       2       0                    LINE       1D     18
     110      11       1       1       0       0       0       001010000D     19
     110       0       0       2       0                    LINE       2D     20
     110      13       1       1       0       0       0       001010000D     21
     110       0       0       2       0                    LINE       3D     22
     110      15       1       1       0       0       0       001010000D     23
     110       0       0       2       0                    LINE       4D     24
     124      17       1       1       0       0       0       001000000D     25
     124       0       0       2       0                   XFORM       1D     26
     100      19       1       1       0       0      25       001010000D     27
     100       0       0       1       0                     ARC       1D     28
     124      20       1       1       0       0       0       001000000D     29
     124       0       0       2       0                   XFORM       2D     30
     100      22       1       1       0       0      29       001010000D     31
     100       0       0       1       0                     ARC       2D     32
     124      23       1       1       0       0       0       001000000D     33
     124       0       0       2       0                   XFORM       3D     34
     100      25       1       1       0       0      33       001010000D     35
     100       0       0       1       0                     ARC       3D     36
     124      26       1       1       0       0       0       001000000D     37
     124       0       0       2       0                   XFORM       4D     38
     100      28       1       1       0       0      37       001010000D     39
     100       0       0       1       0                     ARC       4D     40
     110      29       1       1       0       0       0       001010000D     41
     110       0       0       2       0                    LINE       5D     42
     110      31       1       1       0       0       0       001010000D     43
     110       0       0       2       0                    LINE       6D     44
     110      33       1       1       0       0       0       001010000D     45
     110       0       0       2       0                    LINE       7D     46
     110      35       1       1       0       0       0       001010000D     47
     110       0       0       2       0                    LINE       8D     48
     110      37       1       1       0       0       0       001010000D     49
     110       0       0       2       0                    LINE       9D     50
     110      39       1       1       0       0       0       001010000D     51
     110       0       0       2       0                    LINE      10D     52
     110      41       1       1       0       0       0       001010000D     53
     110       0       0       2       0                    LINE      11D     54
     110      43       1       1       0       0       0       001010000D     55
     110       0       0       2       0                    LINE      12D     56
     124      45       1       1       0       0       0       001000000D     57
     124       0       0       2       0                   XFORM       5D     58
     100      47       1       1       0       0      57       001010000D     59
     100       0       0       1       0                     ARC       5D     60
     124      48       1       1       0       0       0       001000000D     61
     124       0       0       2       0                   XFORM       6D     62
     100      50       1       1       0       0      61       001010000D     63
     100       0       0       1       0                     ARC       6D     64
     124      51       1       1       0       0       0       001000000D     65
     124       0       0       2       0                   XFORM       7D     66
     100      53       1       1       0       0      65       001010000D     67
     100       0       0       1       0                     ARC       7D     68
     124      54       1       1       0       0       0       001000000D     69
     124       0       0       2       0                   XFORM       8D     70
     100      56       1       1       0       0      69       001010000D     71
     100       0       0       1       0                     ARC       8D     72
     110      57       1       1       0       0       0       001010000D     73
     110       0       0       2       0                    LINE      13D     74
     110      59       1       1       0       0       0       001010000D     75
     110       0       0       2       0                    LINE      14D     76
     110      61       1       1       0       0       0       001010000D     77
     110       0       0       2       0                    LINE      15D     78
     110      63       1       1       0       0       0       001010000D     79
     110       0       0       2       0                    LINE      16D     80
     502      65       1       1       0       0       0       001010000D     81
     502       0       0      14       1                  VERTEX       1D     82
     504      79       1       1       0       0       0       000010001D     83
     504       0       0       6       1                    EDGE       1D     84
     128      85       1       1       0       0       0       001010000D     85
     128       0       0       8       0                  SPLSRF       1D     86
     508      93       1       1       0       0       0       001010000D     87
     508       0       0       1       1                EDGELOOP       1D     88
     508      94       1       1       0       0       0       001010000D     89
     508       0       0       1       1                EDGELOOP       2D     90
     508      95       1       1       0       0       0       001010000D     91
     508       0       0       1       1                EDGELOOP       3D     92
     510      96       1       1       0       0       0       000010000D     93
     510       0       0       1       1                    FACE       1D     94
     128      97       1       1       0       0       0       001010000D     95
     128       0       0       9       0                  SPLSRF       2D     96
     508     106       1       1       0       0       0       001010000D     97
     508       0       0       1       1                EDGELOOP       4D     98
     510     107       1       1       0       0       0       000010000D     99
     510       0       0       1       1                    FACE       2D    100
     128     108       1       1       0       0       0       001010000D    101
     128       0       0       9       0                  SPLSRF       3D    102
     508     117       1       1       0       0       0       001010000D    103
     508       0       0       1       1                EDGELOOP       5D    104
     510     118       1       1       0       0       0       000010000D    105
     510       0       0       1       1                    FACE       3D    106
     128     119       1       1       0       0       0       001010000D    107
     128       0       0       9       0                  SPLSRF       4D    108
     508     128       1       1       0       0       0       001010000D    109
     508       0       0       1       1                EDGELOOP       6D    110
     510     129       1       1       0       0       0       000010000D    111
     510       0       0       1       1                    FACE       4D    112
     128     130       1       1       0       0       0       001010000D    113
     128       0       0       9       0                  SPLSRF       5D    114
     508     139       1       1       0       0       0       001010000D    115
     508       0       0       1       1                EDGELOOP       7D    116
     510     140       1       1       0       0       0       000010000D    117
     510       0       0       1       1                    FACE       5D    118
     128     141       1       1       0       0       0       001010000D    119
     128       0       8       9       0                  SPLSRF       6D    120
     508     150       1       1       0       0       0       001010000D    121
     508       0       0       1       1                EDGELOOP       8D    122
     508     151       1       1       0       0       0       001010000D    123
     508       0       0       1       1                EDGELOOP       9D    124
     508     152       1       1       0       0       0       001010000D    125
     508       0       0       1       1                EDGELOOP      10D    126
     510     153       1       1       0       0       0       000010000D    127
     510       0       8       1       1                    FACE       6D    128
     110     154       1       1       0       0       0       001010000D    129
     110       0       0       2       0                    LINE      17D    130
     110     156       1       1       0       0       0       001010000D    131
     110       0       0       2       0                    LINE      18D    132
     120     158       1       1       0       0       0       001010000D    133
     120       0       0       1       0                    SREV       1D    134
     508     159       1       1       0       0       0       001010000D    135
     508       0       0       1       1                EDGELOOP      11D    136
     510     160       1       1       0       0       0       000010000D    137
     510       0       0       1       1                    FACE       7D    138
     110     161       1       1       0       0       0       001010000D    139
     110       0       0       2       0                    LINE      19D    140
     110     163       1       1       0       0       0       001010000D    141
     110       0       0       2       0                    LINE      20D    142
     120     165       1       1       0       0       0       001010000D    143
     120       0       0       1       0                    SREV       2D    144
     508     166       1       1       0       0       0       001010000D    145
     508       0       0       1       1                EDGELOOP      12D    146
     510     167       1       1       0       0       0       000010000D    147
     510       0       0       1       1                    FACE       8D    148
     110     168       1       1       0       0       0       001010000D    149
     110       0       0       2       0                    LINE      21D    150
     110     170       1       1       0       0       0       001010000D    151
     110       0       0       2       0                    LINE      22D    152
     120     172       1       1       0       0       0       001010000D    153
     120       0       0       1       0                    SREV       3D    154
     508     173       1       1       0       0       0       001010000D    155
     508       0       0       1       1                EDGELOOP      13D    156
     510     174       1       1       0       0       0       000010000D    157
     510       0       0       1       1                    FACE       9D    158
     110     175       1       1       0       0       0       001010000D    159
     110       0       0       2       0                    LINE      23D    160
     110     177       1       1       0       0       0       001010000D    161
     110       0       0       2       0                    LINE      24D    162
     120     179       1       1       0       0       0       001010000D    163
     120       0       0       1       0                    SREV       4D    164
     508     180       1       1       0       0       0       001010000D    165
     508       0       0       1       1                EDGELOOP      14D    166
     510     181       1       1       0       0       0       000010000D    167
     510       0       0       1       1                    FACE      10D    168
     514     182       1       1       0       0       0       000010000D    169
     514       0       0       2       1                   SHELL       1D    170
     186     184       1       1       0       0       0       000000000D    171
     186       0       0       1       0                    MSBR       1D    172
314,1.1D0,1.2D0,1D2;                                                   1P      1
314,1.1D1,1.1D1,1.1D1;                                                 3P      2
314,3.92D1,1.2D0,1.2D0;                                                5P      3
314,4.1D1,0D0,2.2D1;                                                   7P      4
314,8.784D1,9.49D1,1D2;                                                9P      5
314,9.6D1,9.6D1,9.6D1;                                                11P      6
314,9.8D1,6.27D1,0D0;                                                 13P      7
314,1D2,1D2,9.49D1;                                                   15P      8
110,-7.696850393701D-1,4.547244094488D-1,0D0,-7.696850393701D-1,      17P      9
-4.547244094488D-1,0D0;                                               17P     10
110,-7.696850393701D-1,-4.547244094488D-1,0D0,7.696850393701D-1,      19P     11
-4.547244094488D-1,0D0;                                               19P     12
110,7.696850393701D-1,-4.547244094488D-1,0D0,7.696850393701D-1,       21P     13
4.547244094488D-1,0D0;                                                21P     14
110,7.696850393701D-1,4.547244094488D-1,0D0,-7.696850393701D-1,       23P     15
4.547244094488D-1,0D0;                                                23P     16
124,1D0,0D0,0D0,6.318897637795D-1,0D0,1D0,0D0,6.102362204724D-2,      25P     17
0D0,0D0,1D0,0D0;                                                      25P     18
100,0D0,0D0,0D0,6.889763779528D-2,0D0,-6.889763779528D-2,0D0;         27P     19
124,-1D0,0D0,0D0,6.318897637795D-1,0D0,-1D0,0D0,                      29P     20
6.102362204724D-2,0D0,0D0,1D0,0D0;                                    29P     21
100,0D0,0D0,0D0,6.889763779528D-2,0D0,-6.889763779528D-2,0D0;         31P     22
124,1D0,0D0,0D0,-6.279527559055D-1,0D0,1D0,0D0,                       33P     23
6.102362204724D-2,0D0,0D0,1D0,0D0;                                    33P     24
100,0D0,0D0,0D0,6.889763779528D-2,0D0,-6.889763779528D-2,0D0;         35P     25
124,-1D0,0D0,0D0,-6.279527559055D-1,0D0,-1D0,0D0,                     37P     26
6.102362204724D-2,0D0,0D0,1D0,0D0;                                    37P     27
100,0D0,0D0,0D0,6.889763779528D-2,0D0,-6.889763779528D-2,0D0;         39P     28
110,-7.696850393701D-1,4.547244094488D-1,0D0,-7.696850393701D-1,      41P     29
4.547244094488D-1,3.228346456693D-1;                                  41P     30
110,7.696850393701D-1,4.547244094488D-1,0D0,7.696850393701D-1,        43P     31
4.547244094488D-1,3.228346456693D-1;                                  43P     32
110,7.696850393701D-1,-4.547244094488D-1,0D0,7.696850393701D-1,       45P     33
-4.547244094488D-1,3.228346456693D-1;                                 45P     34
110,-7.696850393701D-1,-4.547244094488D-1,0D0,                        47P     35
-7.696850393701D-1,-4.547244094488D-1,3.228346456693D-1;              47P     36
110,-7.696850393701D-1,4.547244094488D-1,3.228346456693D-1,           49P     37
-7.696850393701D-1,-4.547244094488D-1,3.228346456693D-1;              49P     38
110,7.696850393701D-1,4.547244094488D-1,3.228346456693D-1,            51P     39
-7.696850393701D-1,4.547244094488D-1,3.228346456693D-1;               51P     40
110,7.696850393701D-1,-4.547244094488D-1,3.228346456693D-1,           53P     41
7.696850393701D-1,4.547244094488D-1,3.228346456693D-1;                53P     42
110,-7.696850393701D-1,-4.547244094488D-1,3.228346456693D-1,          55P     43
7.696850393701D-1,-4.547244094488D-1,3.228346456693D-1;               55P     44
124,1D0,0D0,0D0,6.318897637795D-1,0D0,1D0,0D0,6.102362204724D-2,      57P     45
0D0,0D0,1D0,3.228346456693D-1;                                        57P     46
100,0D0,0D0,0D0,6.889763779528D-2,0D0,-6.889763779528D-2,0D0;         59P     47
124,-1D0,0D0,0D0,6.318897637795D-1,0D0,-1D0,0D0,                      61P     48
6.102362204724D-2,0D0,0D0,1D0,3.228346456693D-1;                      61P     49
100,0D0,0D0,0D0,6.889763779528D-2,0D0,-6.889763779528D-2,0D0;         63P     50
124,1D0,0D0,0D0,-6.279527559055D-1,0D0,1D0,0D0,                       65P     51
6.102362204724D-2,0D0,0D0,1D0,3.228346456693D-1;                      65P     52
100,0D0,0D0,0D0,6.889763779528D-2,0D0,-6.889763779528D-2,0D0;         67P     53
124,-1D0,0D0,0D0,-6.279527559055D-1,0D0,-1D0,0D0,                     69P     54
6.102362204724D-2,0D0,0D0,1D0,3.228346456693D-1;                      69P     55
100,0D0,0D0,0D0,6.889763779528D-2,0D0,-6.889763779528D-2,0D0;         71P     56
110,7.007874015748D-1,6.102362204724D-2,3.228346456693D-1,            73P     57
7.007874015748D-1,6.102362204724D-2,0D0;                              73P     58
110,5.629921259843D-1,6.102362204724D-2,3.228346456693D-1,            75P     59
5.629921259843D-1,6.102362204724D-2,0D0;                              75P     60
110,-5.590551181102D-1,6.102362204724D-2,3.228346456693D-1,           77P     61
-5.590551181102D-1,6.102362204724D-2,0D0;                             77P     62
110,-6.968503937008D-1,6.102362204724D-2,3.228346456693D-1,           79P     63
-6.968503937008D-1,6.102362204724D-2,0D0;                             79P     64
502,16,-7.696850393701D-1,4.547244094488D-1,0D0,                      81P     65
-7.696850393701D-1,-4.547244094488D-1,0D0,7.696850393701D-1,          81P     66
-4.547244094488D-1,0D0,7.696850393701D-1,4.547244094488D-1,0D0,       81P     67
-7.696850393701D-1,4.547244094488D-1,3.228346456693D-1,               81P     68
-7.696850393701D-1,-4.547244094488D-1,3.228346456693D-1,              81P     69
7.696850393701D-1,-4.547244094488D-1,3.228346456693D-1,               81P     70
7.696850393701D-1,4.547244094488D-1,3.228346456693D-1,                81P     71
7.007874015748D-1,6.102362204724D-2,0D0,5.629921259843D-1,            81P     72
6.102362204724D-2,0D0,-5.590551181102D-1,6.102362204724D-2,0D0,       81P     73
-6.968503937008D-1,6.102362204724D-2,0D0,7.007874015748D-1,           81P     74
6.102362204724D-2,3.228346456693D-1,5.629921259843D-1,                81P     75
6.102362204724D-2,3.228346456693D-1,-5.590551181102D-1,               81P     76
6.102362204724D-2,3.228346456693D-1,-6.968503937008D-1,               81P     77
6.102362204724D-2,3.228346456693D-1;                                  81P     78
504,24,17,81,1,81,2,19,81,2,81,3,21,81,3,81,4,23,81,4,81,1,49,        83P     79
81,5,81,6,55,81,6,81,7,53,81,7,81,8,51,81,8,81,5,41,81,1,81,5,        83P     80
47,81,2,81,6,45,81,3,81,7,43,81,4,81,8,27,81,9,81,10,31,81,10,        83P     81
81,9,35,81,11,81,12,39,81,12,81,11,59,81,13,81,14,63,81,14,81,        83P     82
13,67,81,15,81,16,71,81,16,81,15,73,81,13,81,9,75,81,14,81,10,        83P     83
77,81,15,81,11,79,81,16,81,12;                                        83P     84
128,1,1,1,1,0,0,1,0,0,-8.004724409449D-1,-8.004724409449D-1,          85P     85
8.004724409449D-1,8.004724409449D-1,-4.729133858268D-1,               85P     86
-4.729133858268D-1,4.729133858268D-1,4.729133858268D-1,1D0,1D0,       85P     87
1D0,1D0,-8.004724409449D-1,-4.729133858268D-1,0D0,                    85P     88
8.004724409449D-1,-4.729133858268D-1,0D0,-8.004724409449D-1,          85P     89
4.729133858268D-1,0D0,8.004724409449D-1,4.729133858268D-1,0D0,        85P     90
-8.004724409449D-1,8.004724409449D-1,-4.729133858268D-1,              85P     91
4.729133858268D-1;                                                    85P     92
508,4,0,83,1,1,0,0,83,2,1,0,0,83,3,1,0,0,83,4,1,0;                    87P     93
508,2,0,83,13,0,0,0,83,14,0,0;                                        89P     94
508,2,0,83,15,0,0,0,83,16,0,0;                                        91P     95
510,85,3,0,87,89,91;                                                  93P     96
128,1,1,1,1,0,0,1,0,0,-1.818897637795D-2,-1.818897637795D-2,          95P     97
9.276377952756D-1,9.276377952756D-1,-6.456692913386D-3,               95P     98
-6.456692913386D-3,3.292913385827D-1,3.292913385827D-1,1D0,1D0,       95P     99
1D0,1D0,-7.696850393701D-1,4.729133858268D-1,-6.456692913386D-3,      95P    100
-7.696850393701D-1,-4.729133858268D-1,-6.456692913386D-3,             95P    101
-7.696850393701D-1,4.729133858268D-1,3.292913385827D-1,               95P    102
-7.696850393701D-1,-4.729133858268D-1,3.292913385827D-1,              95P    103
-1.818897637795D-2,9.276377952756D-1,-6.456692913386D-3,              95P    104
3.292913385827D-1;                                                    95P    105
508,4,0,83,1,0,0,0,83,9,1,0,0,83,5,1,0,0,83,10,0,0;                   97P    106
510,95,1,0,97;                                                        99P    107
128,1,1,1,1,0,0,1,0,0,-3.078740157480D-2,-3.078740157480D-2,         101P    108
1.570157480315D0,1.570157480315D0,-6.456692913386D-3,                101P    109
-6.456692913386D-3,3.292913385827D-1,3.292913385827D-1,1D0,1D0,      101P    110
1D0,1D0,8.004724409449D-1,4.547244094488D-1,-6.456692913386D-3,      101P    111
-8.004724409449D-1,4.547244094488D-1,-6.456692913386D-3,             101P    112
8.004724409449D-1,4.547244094488D-1,3.292913385827D-1,               101P    113
-8.004724409449D-1,4.547244094488D-1,3.292913385827D-1,              101P    114
-3.078740157480D-2,1.570157480315D0,-6.456692913386D-3,              101P    115
3.292913385827D-1;                                                   101P    116
508,4,0,83,4,0,0,0,83,12,1,0,0,83,8,1,0,0,83,9,0,0;                  103P    117
510,101,1,0,103;                                                     105P    118
128,1,1,1,1,0,0,1,0,0,-1.818897637795D-2,-1.818897637795D-2,         107P    119
9.276377952756D-1,9.276377952756D-1,-6.456692913386D-3,              107P    120
-6.456692913386D-3,3.292913385827D-1,3.292913385827D-1,1D0,1D0,      107P    121
1D0,1D0,7.696850393701D-1,-4.729133858268D-1,-6.456692913386D-3,     107P    122
7.696850393701D-1,4.729133858268D-1,-6.456692913386D-3,              107P    123
7.696850393701D-1,-4.729133858268D-1,3.292913385827D-1,              107P    124
7.696850393701D-1,4.729133858268D-1,3.292913385827D-1,               107P    125
-1.818897637795D-2,9.276377952756D-1,-6.456692913386D-3,             107P    126
3.292913385827D-1;                                                   107P    127
508,4,0,83,3,0,0,0,83,11,1,0,0,83,7,1,0,0,83,12,0,0;                 109P    128
510,107,1,0,109;                                                     111P    129
128,1,1,1,1,0,0,1,0,0,-3.078740157480D-2,-3.078740157480D-2,         113P    130
1.570157480315D0,1.570157480315D0,-6.456692913386D-3,                113P    131
-6.456692913386D-3,3.292913385827D-1,3.292913385827D-1,1D0,1D0,      113P    132
1D0,1D0,-8.004724409449D-1,-4.547244094488D-1,                       113P    133
-6.456692913386D-3,8.004724409449D-1,-4.547244094488D-1,             113P    134
-6.456692913386D-3,-8.004724409449D-1,-4.547244094488D-1,            113P    135
3.292913385827D-1,8.004724409449D-1,-4.547244094488D-1,              113P    136
3.292913385827D-1,-3.078740157480D-2,1.570157480315D0,               113P    137
-6.456692913386D-3,3.292913385827D-1;                                113P    138
508,4,0,83,2,0,0,0,83,10,1,0,0,83,6,1,0,0,83,11,0,0;                 115P    139
510,113,1,0,115;                                                     117P    140
128,1,1,1,1,0,0,1,0,0,-8.004724409449D-1,-8.004724409449D-1,         119P    141
8.004724409449D-1,8.004724409449D-1,-4.729133858268D-1,              119P    142
-4.729133858268D-1,4.729133858268D-1,4.729133858268D-1,1D0,1D0,      119P    143
1D0,1D0,-8.004724409449D-1,-4.729133858268D-1,3.228346456693D-1,     119P    144
8.004724409449D-1,-4.729133858268D-1,3.228346456693D-1,              119P    145
-8.004724409449D-1,4.729133858268D-1,3.228346456693D-1,              119P    146
8.004724409449D-1,4.729133858268D-1,3.228346456693D-1,               119P    147
-8.004724409449D-1,8.004724409449D-1,-4.729133858268D-1,             119P    148
4.729133858268D-1;                                                   119P    149
508,4,0,83,5,0,0,0,83,8,0,0,0,83,7,0,0,0,83,6,0,0;                   121P    150
508,2,0,83,17,1,0,0,83,18,1,0;                                       123P    151
508,2,0,83,19,1,0,0,83,20,1,0;                                       125P    152
510,119,3,0,121,123,125;                                             127P    153
110,6.318897637795D-1,6.102362204724D-2,3.228346456693D-1,           129P    154
6.318897637795D-1,6.102362204724D-2,1.322834645669D0;                129P    155
110,7.007874015748D-1,6.102362204724D-2,-6.456692913386D-3,          131P    156
7.007874015748D-1,6.102362204724D-2,3.292913385827D-1;               131P    157
120,129,131,-6.283185307180D-2,3.204424506662D0;                     133P    158
508,4,0,83,13,1,0,0,83,22,0,0,0,83,17,0,0,0,83,21,1,0;               135P    159
510,133,1,0,135;                                                     137P    160
110,6.318897637795D-1,6.102362204724D-2,3.228346456693D-1,           139P    161
6.318897637795D-1,6.102362204724D-2,1.322834645669D0;                139P    162
110,7.007874015748D-1,6.102362204724D-2,-6.456692913386D-3,          141P    163
7.007874015748D-1,6.102362204724D-2,3.292913385827D-1;               141P    164
120,139,141,3.078760800518D0,6.346017160251D0;                       143P    165
508,4,0,83,14,1,0,0,83,21,0,0,0,83,18,0,0,0,83,22,1,0;               145P    166
510,143,1,0,145;                                                     147P    167
110,-6.279527559055D-1,6.102362204724D-2,3.228346456693D-1,          149P    168
-6.279527559055D-1,6.102362204724D-2,1.322834645669D0;               149P    169
110,-5.590551181102D-1,6.102362204724D-2,-6.456692913386D-3,         151P    170
-5.590551181102D-1,6.102362204724D-2,3.292913385827D-1;              151P    171
120,149,151,-6.283185307180D-2,3.204424506662D0;                     153P    172
508,4,0,83,15,1,0,0,83,24,0,0,0,83,19,0,0,0,83,23,1,0;               155P    173
510,153,1,0,155;                                                     157P    174
110,-6.279527559055D-1,6.102362204724D-2,3.228346456693D-1,          159P    175
-6.279527559055D-1,6.102362204724D-2,1.322834645669D0;               159P    176
110,-5.590551181102D-1,6.102362204724D-2,-6.456692913386D-3,         161P    177
-5.590551181102D-1,6.102362204724D-2,3.292913385827D-1;              161P    178
120,159,161,3.078760800518D0,6.346017160251D0;                       163P    179
508,4,0,83,16,1,0,0,83,23,0,0,0,83,20,0,0,0,83,24,1,0;               165P    180
510,163,1,0,165;                                                     167P    181
514,10,93,0,99,1,105,1,111,1,117,1,127,1,137,0,147,0,157,0,167,      169P    182
0;                                                                   169P    183
186,169,1,0;                                                         171P    184
S      1G      4D    172P    184                                        T      1
