ISO-10303-21;
HEADER;
FILE_DESCRIPTION((''),'2;1');
FILE_NAME('158485_SW','2011-10-06T',('banengservice'),('BANNER ENGINEERING'),
'PRO/ENGINEER BY PARAMETRIC TECHNOLOGY CORPORATION, 2009141',
'PRO/ENGINEER BY PARAMETRIC TECHNOLOGY CORPORATION, 2009141','');
FILE_SCHEMA(('CONFIG_CONTROL_DESIGN'));
ENDSEC;
DATA;
#1=DIRECTION('',(0.E0,-1.E0,0.E0));
#2=VECTOR('',#1,1.181102362205E0);
#3=CARTESIAN_POINT('',(-3.937007874016E-1,5.905511811024E-1,0.E0));
#4=LINE('',#3,#2);
#5=DIRECTION('',(1.E0,0.E0,0.E0));
#6=VECTOR('',#5,7.874015748031E-1);
#7=CARTESIAN_POINT('',(-3.937007874016E-1,-5.905511811024E-1,0.E0));
#8=LINE('',#7,#6);
#9=DIRECTION('',(0.E0,1.E0,0.E0));
#10=VECTOR('',#9,1.181102362205E0);
#11=CARTESIAN_POINT('',(3.937007874016E-1,-5.905511811024E-1,0.E0));
#12=LINE('',#11,#10);
#13=DIRECTION('',(-1.E0,0.E0,0.E0));
#14=VECTOR('',#13,7.874015748031E-1);
#15=CARTESIAN_POINT('',(3.937007874016E-1,5.905511811024E-1,0.E0));
#16=LINE('',#15,#14);
#17=DIRECTION('',(0.E0,-1.E0,0.E0));
#18=VECTOR('',#17,9.842519685039E-1);
#19=CARTESIAN_POINT('',(2.952755905512E-1,4.921259842520E-1,0.E0));
#20=LINE('',#19,#18);
#21=DIRECTION('',(-1.E0,0.E0,0.E0));
#22=VECTOR('',#21,5.905511811024E-1);
#23=CARTESIAN_POINT('',(2.952755905512E-1,-4.921259842520E-1,0.E0));
#24=LINE('',#23,#22);
#25=DIRECTION('',(0.E0,1.E0,0.E0));
#26=VECTOR('',#25,9.842519685039E-1);
#27=CARTESIAN_POINT('',(-2.952755905512E-1,-4.921259842520E-1,0.E0));
#28=LINE('',#27,#26);
#29=DIRECTION('',(1.E0,0.E0,0.E0));
#30=VECTOR('',#29,5.905511811024E-1);
#31=CARTESIAN_POINT('',(-2.952755905512E-1,4.921259842520E-1,0.E0));
#32=LINE('',#31,#30);
#33=DIRECTION('',(0.E0,0.E0,1.E0));
#34=VECTOR('',#33,9.842519685039E-2);
#35=CARTESIAN_POINT('',(-3.937007874016E-1,5.905511811024E-1,0.E0));
#36=LINE('',#35,#34);
#37=DIRECTION('',(0.E0,0.E0,1.E0));
#38=VECTOR('',#37,9.842519685039E-2);
#39=CARTESIAN_POINT('',(3.937007874016E-1,5.905511811024E-1,0.E0));
#40=LINE('',#39,#38);
#41=DIRECTION('',(0.E0,0.E0,1.E0));
#42=VECTOR('',#41,9.842519685039E-2);
#43=CARTESIAN_POINT('',(3.937007874016E-1,-5.905511811024E-1,0.E0));
#44=LINE('',#43,#42);
#45=DIRECTION('',(0.E0,0.E0,1.E0));
#46=VECTOR('',#45,9.842519685039E-2);
#47=CARTESIAN_POINT('',(-3.937007874016E-1,-5.905511811024E-1,0.E0));
#48=LINE('',#47,#46);
#49=DIRECTION('',(0.E0,-1.E0,0.E0));
#50=VECTOR('',#49,1.181102362205E0);
#51=CARTESIAN_POINT('',(-3.937007874016E-1,5.905511811024E-1,
9.842519685039E-2));
#52=LINE('',#51,#50);
#53=DIRECTION('',(-1.E0,0.E0,0.E0));
#54=VECTOR('',#53,7.874015748031E-1);
#55=CARTESIAN_POINT('',(3.937007874016E-1,5.905511811024E-1,9.842519685039E-2));
#56=LINE('',#55,#54);
#57=DIRECTION('',(0.E0,1.E0,0.E0));
#58=VECTOR('',#57,1.181102362205E0);
#59=CARTESIAN_POINT('',(3.937007874016E-1,-5.905511811024E-1,
9.842519685039E-2));
#60=LINE('',#59,#58);
#61=DIRECTION('',(1.E0,0.E0,0.E0));
#62=VECTOR('',#61,7.874015748031E-1);
#63=CARTESIAN_POINT('',(-3.937007874016E-1,-5.905511811024E-1,
9.842519685039E-2));
#64=LINE('',#63,#62);
#65=DIRECTION('',(0.E0,-1.E0,0.E0));
#66=VECTOR('',#65,1.122047244094E0);
#67=CARTESIAN_POINT('',(-3.641732283465E-1,5.610236220472E-1,
9.842519685039E-2));
#68=LINE('',#67,#66);
#69=DIRECTION('',(1.E0,0.E0,0.E0));
#70=VECTOR('',#69,7.283464566929E-1);
#71=CARTESIAN_POINT('',(-3.641732283465E-1,-5.610236220472E-1,
9.842519685039E-2));
#72=LINE('',#71,#70);
#73=DIRECTION('',(0.E0,1.E0,0.E0));
#74=VECTOR('',#73,1.122047244094E0);
#75=CARTESIAN_POINT('',(3.641732283465E-1,-5.610236220472E-1,
9.842519685039E-2));
#76=LINE('',#75,#74);
#77=DIRECTION('',(-1.E0,0.E0,0.E0));
#78=VECTOR('',#77,7.283464566929E-1);
#79=CARTESIAN_POINT('',(3.641732283465E-1,5.610236220472E-1,9.842519685039E-2));
#80=LINE('',#79,#78);
#81=DIRECTION('',(0.E0,0.E0,-1.E0));
#82=VECTOR('',#81,9.842519685039E-3);
#83=CARTESIAN_POINT('',(-3.641732283465E-1,5.610236220472E-1,
9.842519685039E-2));
#84=LINE('',#83,#82);
#85=DIRECTION('',(0.E0,0.E0,-1.E0));
#86=VECTOR('',#85,9.842519685039E-3);
#87=CARTESIAN_POINT('',(3.641732283465E-1,5.610236220472E-1,9.842519685039E-2));
#88=LINE('',#87,#86);
#89=DIRECTION('',(0.E0,0.E0,-1.E0));
#90=VECTOR('',#89,9.842519685039E-3);
#91=CARTESIAN_POINT('',(3.641732283465E-1,-5.610236220472E-1,
9.842519685039E-2));
#92=LINE('',#91,#90);
#93=DIRECTION('',(0.E0,0.E0,-1.E0));
#94=VECTOR('',#93,9.842519685039E-3);
#95=CARTESIAN_POINT('',(-3.641732283465E-1,-5.610236220472E-1,
9.842519685039E-2));
#96=LINE('',#95,#94);
#97=DIRECTION('',(0.E0,-1.E0,0.E0));
#98=VECTOR('',#97,1.122047244094E0);
#99=CARTESIAN_POINT('',(-3.641732283465E-1,5.610236220472E-1,
8.858267716535E-2));
#100=LINE('',#99,#98);
#101=DIRECTION('',(-1.E0,0.E0,0.E0));
#102=VECTOR('',#101,7.283464566929E-1);
#103=CARTESIAN_POINT('',(3.641732283465E-1,5.610236220472E-1,
8.858267716535E-2));
#104=LINE('',#103,#102);
#105=DIRECTION('',(0.E0,1.E0,0.E0));
#106=VECTOR('',#105,1.122047244094E0);
#107=CARTESIAN_POINT('',(3.641732283465E-1,-5.610236220472E-1,
8.858267716535E-2));
#108=LINE('',#107,#106);
#109=DIRECTION('',(1.E0,0.E0,0.E0));
#110=VECTOR('',#109,7.283464566929E-1);
#111=CARTESIAN_POINT('',(-3.641732283465E-1,-5.610236220472E-1,
8.858267716535E-2));
#112=LINE('',#111,#110);
#113=DIRECTION('',(0.E0,0.E0,-1.E0));
#114=VECTOR('',#113,1.968503937008E-2);
#115=CARTESIAN_POINT('',(2.952755905512E-1,4.921259842520E-1,0.E0));
#116=LINE('',#115,#114);
#117=DIRECTION('',(0.E0,0.E0,-1.E0));
#118=VECTOR('',#117,1.968503937008E-2);
#119=CARTESIAN_POINT('',(-2.952755905512E-1,4.921259842520E-1,0.E0));
#120=LINE('',#119,#118);
#121=DIRECTION('',(0.E0,0.E0,-1.E0));
#122=VECTOR('',#121,1.968503937008E-2);
#123=CARTESIAN_POINT('',(-2.952755905512E-1,-4.921259842520E-1,0.E0));
#124=LINE('',#123,#122);
#125=DIRECTION('',(0.E0,0.E0,-1.E0));
#126=VECTOR('',#125,1.968503937008E-2);
#127=CARTESIAN_POINT('',(2.952755905512E-1,-4.921259842520E-1,0.E0));
#128=LINE('',#127,#126);
#129=DIRECTION('',(0.E0,-1.E0,0.E0));
#130=VECTOR('',#129,9.842519685039E-1);
#131=CARTESIAN_POINT('',(2.952755905512E-1,4.921259842520E-1,
-1.968503937008E-2));
#132=LINE('',#131,#130);
#133=DIRECTION('',(1.E0,0.E0,0.E0));
#134=VECTOR('',#133,5.905511811024E-1);
#135=CARTESIAN_POINT('',(-2.952755905512E-1,4.921259842520E-1,
-1.968503937008E-2));
#136=LINE('',#135,#134);
#137=DIRECTION('',(0.E0,1.E0,0.E0));
#138=VECTOR('',#137,9.842519685039E-1);
#139=CARTESIAN_POINT('',(-2.952755905512E-1,-4.921259842520E-1,
-1.968503937008E-2));
#140=LINE('',#139,#138);
#141=DIRECTION('',(-1.E0,0.E0,0.E0));
#142=VECTOR('',#141,5.905511811024E-1);
#143=CARTESIAN_POINT('',(2.952755905512E-1,-4.921259842520E-1,
-1.968503937008E-2));
#144=LINE('',#143,#142);
#145=CARTESIAN_POINT('',(-3.937007874016E-1,5.905511811024E-1,0.E0));
#146=CARTESIAN_POINT('',(-3.937007874016E-1,-5.905511811024E-1,0.E0));
#147=VERTEX_POINT('',#145);
#148=VERTEX_POINT('',#146);
#149=CARTESIAN_POINT('',(3.937007874016E-1,-5.905511811024E-1,0.E0));
#150=VERTEX_POINT('',#149);
#151=CARTESIAN_POINT('',(3.937007874016E-1,5.905511811024E-1,0.E0));
#152=VERTEX_POINT('',#151);
#153=CARTESIAN_POINT('',(-3.937007874016E-1,5.905511811024E-1,
9.842519685039E-2));
#154=CARTESIAN_POINT('',(-3.937007874016E-1,-5.905511811024E-1,
9.842519685039E-2));
#155=VERTEX_POINT('',#153);
#156=VERTEX_POINT('',#154);
#157=CARTESIAN_POINT('',(3.937007874016E-1,-5.905511811024E-1,
9.842519685039E-2));
#158=VERTEX_POINT('',#157);
#159=CARTESIAN_POINT('',(3.937007874016E-1,5.905511811024E-1,
9.842519685039E-2));
#160=VERTEX_POINT('',#159);
#161=CARTESIAN_POINT('',(-3.641732283465E-1,5.610236220472E-1,
8.858267716535E-2));
#162=CARTESIAN_POINT('',(-3.641732283465E-1,-5.610236220472E-1,
8.858267716535E-2));
#163=VERTEX_POINT('',#161);
#164=VERTEX_POINT('',#162);
#165=CARTESIAN_POINT('',(3.641732283465E-1,-5.610236220472E-1,
8.858267716535E-2));
#166=VERTEX_POINT('',#165);
#167=CARTESIAN_POINT('',(3.641732283465E-1,5.610236220472E-1,
8.858267716535E-2));
#168=VERTEX_POINT('',#167);
#169=CARTESIAN_POINT('',(-3.641732283465E-1,5.610236220472E-1,
9.842519685039E-2));
#170=CARTESIAN_POINT('',(-3.641732283465E-1,-5.610236220472E-1,
9.842519685039E-2));
#171=VERTEX_POINT('',#169);
#172=VERTEX_POINT('',#170);
#173=CARTESIAN_POINT('',(3.641732283465E-1,-5.610236220472E-1,
9.842519685039E-2));
#174=VERTEX_POINT('',#173);
#175=CARTESIAN_POINT('',(3.641732283465E-1,5.610236220472E-1,
9.842519685039E-2));
#176=VERTEX_POINT('',#175);
#177=CARTESIAN_POINT('',(2.952755905512E-1,4.921259842520E-1,
-1.968503937008E-2));
#178=CARTESIAN_POINT('',(2.952755905512E-1,-4.921259842520E-1,
-1.968503937008E-2));
#179=VERTEX_POINT('',#177);
#180=VERTEX_POINT('',#178);
#181=CARTESIAN_POINT('',(-2.952755905512E-1,-4.921259842520E-1,
-1.968503937008E-2));
#182=VERTEX_POINT('',#181);
#183=CARTESIAN_POINT('',(-2.952755905512E-1,4.921259842520E-1,
-1.968503937008E-2));
#184=VERTEX_POINT('',#183);
#185=CARTESIAN_POINT('',(2.952755905512E-1,4.921259842520E-1,0.E0));
#186=CARTESIAN_POINT('',(2.952755905512E-1,-4.921259842520E-1,0.E0));
#187=VERTEX_POINT('',#185);
#188=VERTEX_POINT('',#186);
#189=CARTESIAN_POINT('',(-2.952755905512E-1,-4.921259842520E-1,0.E0));
#190=VERTEX_POINT('',#189);
#191=CARTESIAN_POINT('',(-2.952755905512E-1,4.921259842520E-1,0.E0));
#192=VERTEX_POINT('',#191);
#193=CARTESIAN_POINT('',(0.E0,0.E0,0.E0));
#194=DIRECTION('',(0.E0,0.E0,1.E0));
#195=DIRECTION('',(1.E0,0.E0,0.E0));
#196=AXIS2_PLACEMENT_3D('',#193,#194,#195);
#197=PLANE('',#196);
#199=ORIENTED_EDGE('',*,*,#198,.T.);
#201=ORIENTED_EDGE('',*,*,#200,.T.);
#203=ORIENTED_EDGE('',*,*,#202,.T.);
#205=ORIENTED_EDGE('',*,*,#204,.T.);
#206=EDGE_LOOP('',(#199,#201,#203,#205));
#207=FACE_OUTER_BOUND('',#206,.F.);
#209=ORIENTED_EDGE('',*,*,#208,.T.);
#211=ORIENTED_EDGE('',*,*,#210,.T.);
#213=ORIENTED_EDGE('',*,*,#212,.T.);
#215=ORIENTED_EDGE('',*,*,#214,.T.);
#216=EDGE_LOOP('',(#209,#211,#213,#215));
#217=FACE_BOUND('',#216,.F.);
#218=ADVANCED_FACE('',(#207,#217),#197,.F.);
#219=CARTESIAN_POINT('',(-3.937007874016E-1,5.905511811024E-1,0.E0));
#220=DIRECTION('',(-1.E0,0.E0,0.E0));
#221=DIRECTION('',(0.E0,-1.E0,0.E0));
#222=AXIS2_PLACEMENT_3D('',#219,#220,#221);
#223=PLANE('',#222);
#224=ORIENTED_EDGE('',*,*,#198,.F.);
#226=ORIENTED_EDGE('',*,*,#225,.T.);
#228=ORIENTED_EDGE('',*,*,#227,.T.);
#230=ORIENTED_EDGE('',*,*,#229,.F.);
#231=EDGE_LOOP('',(#224,#226,#228,#230));
#232=FACE_OUTER_BOUND('',#231,.F.);
#233=ADVANCED_FACE('',(#232),#223,.T.);
#234=CARTESIAN_POINT('',(3.937007874016E-1,5.905511811024E-1,0.E0));
#235=DIRECTION('',(0.E0,1.E0,0.E0));
#236=DIRECTION('',(-1.E0,0.E0,0.E0));
#237=AXIS2_PLACEMENT_3D('',#234,#235,#236);
#238=PLANE('',#237);
#239=ORIENTED_EDGE('',*,*,#204,.F.);
#241=ORIENTED_EDGE('',*,*,#240,.T.);
#243=ORIENTED_EDGE('',*,*,#242,.T.);
#244=ORIENTED_EDGE('',*,*,#225,.F.);
#245=EDGE_LOOP('',(#239,#241,#243,#244));
#246=FACE_OUTER_BOUND('',#245,.F.);
#247=ADVANCED_FACE('',(#246),#238,.T.);
#248=CARTESIAN_POINT('',(3.937007874016E-1,-5.905511811024E-1,0.E0));
#249=DIRECTION('',(1.E0,0.E0,0.E0));
#250=DIRECTION('',(0.E0,1.E0,0.E0));
#251=AXIS2_PLACEMENT_3D('',#248,#249,#250);
#252=PLANE('',#251);
#253=ORIENTED_EDGE('',*,*,#202,.F.);
#255=ORIENTED_EDGE('',*,*,#254,.T.);
#257=ORIENTED_EDGE('',*,*,#256,.T.);
#258=ORIENTED_EDGE('',*,*,#240,.F.);
#259=EDGE_LOOP('',(#253,#255,#257,#258));
#260=FACE_OUTER_BOUND('',#259,.F.);
#261=ADVANCED_FACE('',(#260),#252,.T.);
#262=CARTESIAN_POINT('',(-3.937007874016E-1,-5.905511811024E-1,0.E0));
#263=DIRECTION('',(0.E0,-1.E0,0.E0));
#264=DIRECTION('',(1.E0,0.E0,0.E0));
#265=AXIS2_PLACEMENT_3D('',#262,#263,#264);
#266=PLANE('',#265);
#267=ORIENTED_EDGE('',*,*,#200,.F.);
#268=ORIENTED_EDGE('',*,*,#229,.T.);
#270=ORIENTED_EDGE('',*,*,#269,.T.);
#271=ORIENTED_EDGE('',*,*,#254,.F.);
#272=EDGE_LOOP('',(#267,#268,#270,#271));
#273=FACE_OUTER_BOUND('',#272,.F.);
#274=ADVANCED_FACE('',(#273),#266,.T.);
#275=CARTESIAN_POINT('',(0.E0,0.E0,9.842519685039E-2));
#276=DIRECTION('',(0.E0,0.E0,1.E0));
#277=DIRECTION('',(1.E0,0.E0,0.E0));
#278=AXIS2_PLACEMENT_3D('',#275,#276,#277);
#279=PLANE('',#278);
#280=ORIENTED_EDGE('',*,*,#227,.F.);
#281=ORIENTED_EDGE('',*,*,#242,.F.);
#282=ORIENTED_EDGE('',*,*,#256,.F.);
#283=ORIENTED_EDGE('',*,*,#269,.F.);
#284=EDGE_LOOP('',(#280,#281,#282,#283));
#285=FACE_OUTER_BOUND('',#284,.F.);
#287=ORIENTED_EDGE('',*,*,#286,.T.);
#289=ORIENTED_EDGE('',*,*,#288,.T.);
#291=ORIENTED_EDGE('',*,*,#290,.T.);
#293=ORIENTED_EDGE('',*,*,#292,.T.);
#294=EDGE_LOOP('',(#287,#289,#291,#293));
#295=FACE_BOUND('',#294,.F.);
#296=ADVANCED_FACE('',(#285,#295),#279,.T.);
#297=CARTESIAN_POINT('',(-3.641732283465E-1,5.610236220472E-1,
9.842519685039E-2));
#298=DIRECTION('',(-1.E0,0.E0,0.E0));
#299=DIRECTION('',(0.E0,-1.E0,0.E0));
#300=AXIS2_PLACEMENT_3D('',#297,#298,#299);
#301=PLANE('',#300);
#302=ORIENTED_EDGE('',*,*,#286,.F.);
#304=ORIENTED_EDGE('',*,*,#303,.T.);
#306=ORIENTED_EDGE('',*,*,#305,.T.);
#308=ORIENTED_EDGE('',*,*,#307,.F.);
#309=EDGE_LOOP('',(#302,#304,#306,#308));
#310=FACE_OUTER_BOUND('',#309,.F.);
#311=ADVANCED_FACE('',(#310),#301,.F.);
#312=CARTESIAN_POINT('',(3.641732283465E-1,5.610236220472E-1,
9.842519685039E-2));
#313=DIRECTION('',(0.E0,1.E0,0.E0));
#314=DIRECTION('',(-1.E0,0.E0,0.E0));
#315=AXIS2_PLACEMENT_3D('',#312,#313,#314);
#316=PLANE('',#315);
#317=ORIENTED_EDGE('',*,*,#292,.F.);
#319=ORIENTED_EDGE('',*,*,#318,.T.);
#321=ORIENTED_EDGE('',*,*,#320,.T.);
#322=ORIENTED_EDGE('',*,*,#303,.F.);
#323=EDGE_LOOP('',(#317,#319,#321,#322));
#324=FACE_OUTER_BOUND('',#323,.F.);
#325=ADVANCED_FACE('',(#324),#316,.F.);
#326=CARTESIAN_POINT('',(3.641732283465E-1,-5.610236220472E-1,
9.842519685039E-2));
#327=DIRECTION('',(1.E0,0.E0,0.E0));
#328=DIRECTION('',(0.E0,1.E0,0.E0));
#329=AXIS2_PLACEMENT_3D('',#326,#327,#328);
#330=PLANE('',#329);
#331=ORIENTED_EDGE('',*,*,#290,.F.);
#333=ORIENTED_EDGE('',*,*,#332,.T.);
#335=ORIENTED_EDGE('',*,*,#334,.T.);
#336=ORIENTED_EDGE('',*,*,#318,.F.);
#337=EDGE_LOOP('',(#331,#333,#335,#336));
#338=FACE_OUTER_BOUND('',#337,.F.);
#339=ADVANCED_FACE('',(#338),#330,.F.);
#340=CARTESIAN_POINT('',(-3.641732283465E-1,-5.610236220472E-1,
9.842519685039E-2));
#341=DIRECTION('',(0.E0,-1.E0,0.E0));
#342=DIRECTION('',(1.E0,0.E0,0.E0));
#343=AXIS2_PLACEMENT_3D('',#340,#341,#342);
#344=PLANE('',#343);
#345=ORIENTED_EDGE('',*,*,#288,.F.);
#346=ORIENTED_EDGE('',*,*,#307,.T.);
#348=ORIENTED_EDGE('',*,*,#347,.T.);
#349=ORIENTED_EDGE('',*,*,#332,.F.);
#350=EDGE_LOOP('',(#345,#346,#348,#349));
#351=FACE_OUTER_BOUND('',#350,.F.);
#352=ADVANCED_FACE('',(#351),#344,.F.);
#353=CARTESIAN_POINT('',(0.E0,0.E0,8.858267716535E-2));
#354=DIRECTION('',(0.E0,0.E0,1.E0));
#355=DIRECTION('',(1.E0,0.E0,0.E0));
#356=AXIS2_PLACEMENT_3D('',#353,#354,#355);
#357=PLANE('',#356);
#358=ORIENTED_EDGE('',*,*,#305,.F.);
#359=ORIENTED_EDGE('',*,*,#320,.F.);
#360=ORIENTED_EDGE('',*,*,#334,.F.);
#361=ORIENTED_EDGE('',*,*,#347,.F.);
#362=EDGE_LOOP('',(#358,#359,#360,#361));
#363=FACE_OUTER_BOUND('',#362,.F.);
#364=ADVANCED_FACE('',(#363),#357,.T.);
#365=CARTESIAN_POINT('',(2.952755905512E-1,4.921259842520E-1,0.E0));
#366=DIRECTION('',(1.E0,0.E0,0.E0));
#367=DIRECTION('',(0.E0,-1.E0,0.E0));
#368=AXIS2_PLACEMENT_3D('',#365,#366,#367);
#369=PLANE('',#368);
#370=ORIENTED_EDGE('',*,*,#208,.F.);
#372=ORIENTED_EDGE('',*,*,#371,.T.);
#374=ORIENTED_EDGE('',*,*,#373,.T.);
#376=ORIENTED_EDGE('',*,*,#375,.F.);
#377=EDGE_LOOP('',(#370,#372,#374,#376));
#378=FACE_OUTER_BOUND('',#377,.F.);
#379=ADVANCED_FACE('',(#378),#369,.T.);
#380=CARTESIAN_POINT('',(-2.952755905512E-1,4.921259842520E-1,0.E0));
#381=DIRECTION('',(0.E0,1.E0,0.E0));
#382=DIRECTION('',(1.E0,0.E0,0.E0));
#383=AXIS2_PLACEMENT_3D('',#380,#381,#382);
#384=PLANE('',#383);
#385=ORIENTED_EDGE('',*,*,#214,.F.);
#387=ORIENTED_EDGE('',*,*,#386,.T.);
#389=ORIENTED_EDGE('',*,*,#388,.T.);
#390=ORIENTED_EDGE('',*,*,#371,.F.);
#391=EDGE_LOOP('',(#385,#387,#389,#390));
#392=FACE_OUTER_BOUND('',#391,.F.);
#393=ADVANCED_FACE('',(#392),#384,.T.);
#394=CARTESIAN_POINT('',(-2.952755905512E-1,-4.921259842520E-1,0.E0));
#395=DIRECTION('',(-1.E0,0.E0,0.E0));
#396=DIRECTION('',(0.E0,1.E0,0.E0));
#397=AXIS2_PLACEMENT_3D('',#394,#395,#396);
#398=PLANE('',#397);
#399=ORIENTED_EDGE('',*,*,#212,.F.);
#401=ORIENTED_EDGE('',*,*,#400,.T.);
#403=ORIENTED_EDGE('',*,*,#402,.T.);
#404=ORIENTED_EDGE('',*,*,#386,.F.);
#405=EDGE_LOOP('',(#399,#401,#403,#404));
#406=FACE_OUTER_BOUND('',#405,.F.);
#407=ADVANCED_FACE('',(#406),#398,.T.);
#408=CARTESIAN_POINT('',(2.952755905512E-1,-4.921259842520E-1,0.E0));
#409=DIRECTION('',(0.E0,-1.E0,0.E0));
#410=DIRECTION('',(-1.E0,0.E0,0.E0));
#411=AXIS2_PLACEMENT_3D('',#408,#409,#410);
#412=PLANE('',#411);
#413=ORIENTED_EDGE('',*,*,#210,.F.);
#414=ORIENTED_EDGE('',*,*,#375,.T.);
#416=ORIENTED_EDGE('',*,*,#415,.T.);
#417=ORIENTED_EDGE('',*,*,#400,.F.);
#418=EDGE_LOOP('',(#413,#414,#416,#417));
#419=FACE_OUTER_BOUND('',#418,.F.);
#420=ADVANCED_FACE('',(#419),#412,.T.);
#421=CARTESIAN_POINT('',(0.E0,0.E0,-1.968503937008E-2));
#422=DIRECTION('',(0.E0,0.E0,-1.E0));
#423=DIRECTION('',(-1.E0,0.E0,0.E0));
#424=AXIS2_PLACEMENT_3D('',#421,#422,#423);
#425=PLANE('',#424);
#426=ORIENTED_EDGE('',*,*,#373,.F.);
#427=ORIENTED_EDGE('',*,*,#388,.F.);
#428=ORIENTED_EDGE('',*,*,#402,.F.);
#429=ORIENTED_EDGE('',*,*,#415,.F.);
#430=EDGE_LOOP('',(#426,#427,#428,#429));
#431=FACE_OUTER_BOUND('',#430,.F.);
#432=ADVANCED_FACE('',(#431),#425,.T.);
#433=CLOSED_SHELL('',(#218,#233,#247,#261,#274,#296,#311,#325,#339,#352,#364,
#379,#393,#407,#420,#432));
#434=MANIFOLD_SOLID_BREP('',#433);
#435=DIMENSIONAL_EXPONENTS(1.E0,0.E0,0.E0,0.E0,0.E0,0.E0,0.E0);
#436=(LENGTH_UNIT()NAMED_UNIT(*)SI_UNIT(.MILLI.,.METRE.));
#437=LENGTH_MEASURE_WITH_UNIT(LENGTH_MEASURE(2.54E1),#436);
#438=(CONVERSION_BASED_UNIT('INCH',#437)LENGTH_UNIT()NAMED_UNIT(#435));
#439=DIMENSIONAL_EXPONENTS(0.E0,0.E0,0.E0,0.E0,0.E0,0.E0,0.E0);
#440=(NAMED_UNIT(*)PLANE_ANGLE_UNIT()SI_UNIT($,.RADIAN.));
#441=PLANE_ANGLE_MEASURE_WITH_UNIT(PLANE_ANGLE_MEASURE(1.745329251994E-2),#440);
#442=(CONVERSION_BASED_UNIT('DEGREE',#441)NAMED_UNIT(#439)PLANE_ANGLE_UNIT());
#443=(NAMED_UNIT(*)SI_UNIT($,.STERADIAN.)SOLID_ANGLE_UNIT());
#444=UNCERTAINTY_MEASURE_WITH_UNIT(LENGTH_MEASURE(1.561396755415E-4),#438,
'closure',
'Maximum model space distance between geometric entities at asserted connectivities');
#445=(GEOMETRIC_REPRESENTATION_CONTEXT(3)GLOBAL_UNCERTAINTY_ASSIGNED_CONTEXT((
#444))GLOBAL_UNIT_ASSIGNED_CONTEXT((#438,#442,#443))REPRESENTATION_CONTEXT
('ID1','3'));
#447=APPLICATION_CONTEXT(
'CONFIGURATION CONTROLLED 3D DESIGNS OF MECHANICAL PARTS AND ASSEMBLIES');
#448=APPLICATION_PROTOCOL_DEFINITION('international standard',
'config_control_design',1994,#447);
#449=DESIGN_CONTEXT('',#447,'design');
#450=MECHANICAL_CONTEXT('',#447,'mechanical');
#451=PRODUCT('158485_SW','158485_SW','NOT SPECIFIED',(#450));
#452=PRODUCT_DEFINITION_FORMATION_WITH_SPECIFIED_SOURCE('','LAST_VERSION',#451,
.MADE.);
#456=PRODUCT_CATEGORY('part','');
#457=PRODUCT_RELATED_PRODUCT_CATEGORY('detail','',(#451));
#458=PRODUCT_CATEGORY_RELATIONSHIP('','',#456,#457);
#459=SECURITY_CLASSIFICATION_LEVEL('unclassified');
#460=SECURITY_CLASSIFICATION('','',#459);
#461=CC_DESIGN_SECURITY_CLASSIFICATION(#460,(#452));
#462=APPROVAL_STATUS('approved');
#463=APPROVAL(#462,'');
#464=CC_DESIGN_APPROVAL(#463,(#460,#452,#453));
#465=CALENDAR_DATE(111,6,10);
#466=COORDINATED_UNIVERSAL_TIME_OFFSET(5,0,.BEHIND.);
#467=LOCAL_TIME(12,32,3.8E1,#466);
#468=DATE_AND_TIME(#465,#467);
#469=APPROVAL_DATE_TIME(#468,#463);
#470=DATE_TIME_ROLE('creation_date');
#471=CC_DESIGN_DATE_AND_TIME_ASSIGNMENT(#468,#470,(#453));
#472=DATE_TIME_ROLE('classification_date');
#473=CC_DESIGN_DATE_AND_TIME_ASSIGNMENT(#468,#472,(#460));
#474=PERSON('UNSPECIFIED','UNSPECIFIED',$,$,$,$);
#475=ORGANIZATION('UNSPECIFIED','UNSPECIFIED','UNSPECIFIED');
#476=PERSON_AND_ORGANIZATION(#474,#475);
#477=APPROVAL_ROLE('approver');
#478=APPROVAL_PERSON_ORGANIZATION(#476,#463,#477);
#479=PERSON_AND_ORGANIZATION_ROLE('creator');
#480=CC_DESIGN_PERSON_AND_ORGANIZATION_ASSIGNMENT(#476,#479,(#452,#453));
#481=PERSON_AND_ORGANIZATION_ROLE('design_supplier');
#482=CC_DESIGN_PERSON_AND_ORGANIZATION_ASSIGNMENT(#476,#481,(#452));
#483=PERSON_AND_ORGANIZATION_ROLE('classification_officer');
#484=CC_DESIGN_PERSON_AND_ORGANIZATION_ASSIGNMENT(#476,#483,(#460));
#485=PERSON_AND_ORGANIZATION_ROLE('design_owner');
#486=CC_DESIGN_PERSON_AND_ORGANIZATION_ASSIGNMENT(#476,#485,(#451));
#198=EDGE_CURVE('',#147,#148,#4,.T.);
#200=EDGE_CURVE('',#148,#150,#8,.T.);
#202=EDGE_CURVE('',#150,#152,#12,.T.);
#204=EDGE_CURVE('',#152,#147,#16,.T.);
#208=EDGE_CURVE('',#187,#188,#20,.T.);
#210=EDGE_CURVE('',#188,#190,#24,.T.);
#212=EDGE_CURVE('',#190,#192,#28,.T.);
#214=EDGE_CURVE('',#192,#187,#32,.T.);
#225=EDGE_CURVE('',#147,#155,#36,.T.);
#227=EDGE_CURVE('',#155,#156,#52,.T.);
#229=EDGE_CURVE('',#148,#156,#48,.T.);
#240=EDGE_CURVE('',#152,#160,#40,.T.);
#242=EDGE_CURVE('',#160,#155,#56,.T.);
#254=EDGE_CURVE('',#150,#158,#44,.T.);
#256=EDGE_CURVE('',#158,#160,#60,.T.);
#269=EDGE_CURVE('',#156,#158,#64,.T.);
#286=EDGE_CURVE('',#171,#172,#68,.T.);
#288=EDGE_CURVE('',#172,#174,#72,.T.);
#290=EDGE_CURVE('',#174,#176,#76,.T.);
#292=EDGE_CURVE('',#176,#171,#80,.T.);
#303=EDGE_CURVE('',#171,#163,#84,.T.);
#305=EDGE_CURVE('',#163,#164,#100,.T.);
#307=EDGE_CURVE('',#172,#164,#96,.T.);
#318=EDGE_CURVE('',#176,#168,#88,.T.);
#320=EDGE_CURVE('',#168,#163,#104,.T.);
#332=EDGE_CURVE('',#174,#166,#92,.T.);
#334=EDGE_CURVE('',#166,#168,#108,.T.);
#347=EDGE_CURVE('',#164,#166,#112,.T.);
#371=EDGE_CURVE('',#187,#179,#116,.T.);
#373=EDGE_CURVE('',#179,#180,#132,.T.);
#375=EDGE_CURVE('',#188,#180,#128,.T.);
#386=EDGE_CURVE('',#192,#184,#120,.T.);
#388=EDGE_CURVE('',#184,#179,#136,.T.);
#400=EDGE_CURVE('',#190,#182,#124,.T.);
#402=EDGE_CURVE('',#182,#184,#140,.T.);
#415=EDGE_CURVE('',#180,#182,#144,.T.);
#446=ADVANCED_BREP_SHAPE_REPRESENTATION('',(#434),#445);
#453=PRODUCT_DEFINITION('design','',#452,#449);
#454=PRODUCT_DEFINITION_SHAPE('','SHAPE FOR 158485_SW.',#453);
#455=SHAPE_DEFINITION_REPRESENTATION(#454,#446);
ENDSEC;
END-ISO-10303-21;
