ISO-10303-21;
HEADER;
FILE_DESCRIPTION((''),'2;1');
FILE_NAME('156817_ASM','2017-05-01T',('pdmadmin'),('BANNER ENGINEERING'),
'CREO PARAMETRIC BY PTC INC, 2016260','CREO PARAMETRIC BY PTC INC, 2016260','');
FILE_SCHEMA(('CONFIG_CONTROL_DESIGN'));
ENDSEC;
DATA;
#1=CARTESIAN_POINT('',(0.E0,1.224646799147E-14,0.E0));
#2=DIRECTION('',(0.E0,0.E0,1.E0));
#3=DIRECTION('',(0.E0,1.E0,0.E0));
#4=AXIS2_PLACEMENT_3D('',#1,#2,#3);
#6=CARTESIAN_POINT('',(0.E0,1.224646799147E-14,0.E0));
#7=DIRECTION('',(0.E0,0.E0,-1.E0));
#8=DIRECTION('',(0.E0,1.E0,0.E0));
#9=AXIS2_PLACEMENT_3D('',#6,#7,#8);
#11=CARTESIAN_POINT('',(0.E0,1.310372075088E-14,7.E0));
#12=DIRECTION('',(0.E0,0.E0,1.E0));
#13=DIRECTION('',(0.E0,1.E0,0.E0));
#14=AXIS2_PLACEMENT_3D('',#11,#12,#13);
#16=DIRECTION('',(0.E0,0.E0,-1.E0));
#17=VECTOR('',#16,7.E0);
#18=CARTESIAN_POINT('',(0.E0,2.6E0,7.E0));
#19=LINE('',#18,#17);
#20=CARTESIAN_POINT('',(0.E0,1.310372075088E-14,7.E0));
#21=DIRECTION('',(0.E0,0.E0,-1.E0));
#22=DIRECTION('',(0.E0,1.E0,0.E0));
#23=AXIS2_PLACEMENT_3D('',#20,#21,#22);
#25=DIRECTION('',(0.E0,0.E0,-1.E0));
#26=VECTOR('',#25,7.E0);
#27=CARTESIAN_POINT('',(0.E0,-2.6E0,7.E0));
#28=LINE('',#27,#26);
#29=CARTESIAN_POINT('',(0.E0,1.310372075088E-14,7.E0));
#30=DIRECTION('',(0.E0,0.E0,1.E0));
#31=DIRECTION('',(0.E0,1.E0,0.E0));
#32=AXIS2_PLACEMENT_3D('',#29,#30,#31);
#34=CARTESIAN_POINT('',(0.E0,1.310372075088E-14,7.E0));
#35=DIRECTION('',(0.E0,0.E0,-1.E0));
#36=DIRECTION('',(0.E0,1.E0,0.E0));
#37=AXIS2_PLACEMENT_3D('',#34,#35,#36);
#39=CARTESIAN_POINT('',(0.E0,0.E0,7.E0));
#40=DIRECTION('',(0.E0,0.E0,1.E0));
#41=DIRECTION('',(-1.E0,0.E0,0.E0));
#42=AXIS2_PLACEMENT_3D('',#39,#40,#41);
#44=CARTESIAN_POINT('',(0.E0,0.E0,7.E0));
#45=DIRECTION('',(0.E0,0.E0,1.E0));
#46=DIRECTION('',(1.E0,0.E0,0.E0));
#47=AXIS2_PLACEMENT_3D('',#44,#45,#46);
#49=CARTESIAN_POINT('',(0.E0,0.E0,7.E0));
#50=DIRECTION('',(0.E0,0.E0,1.E0));
#51=DIRECTION('',(1.E0,0.E0,0.E0));
#52=AXIS2_PLACEMENT_3D('',#49,#50,#51);
#54=CARTESIAN_POINT('',(0.E0,0.E0,7.E0));
#55=DIRECTION('',(0.E0,0.E0,1.E0));
#56=DIRECTION('',(-1.E0,0.E0,0.E0));
#57=AXIS2_PLACEMENT_3D('',#54,#55,#56);
#59=CARTESIAN_POINT('',(0.E0,1.243016501135E-14,1.5E0));
#60=DIRECTION('',(0.E0,0.E0,1.E0));
#61=DIRECTION('',(0.E0,1.E0,0.E0));
#62=AXIS2_PLACEMENT_3D('',#59,#60,#61);
#64=DIRECTION('',(0.E0,0.E0,1.E0));
#65=VECTOR('',#64,5.5E0);
#66=CARTESIAN_POINT('',(0.E0,3.9E1,1.5E0));
#67=LINE('',#66,#65);
#68=CARTESIAN_POINT('',(0.E0,1.243016501135E-14,1.5E0));
#69=DIRECTION('',(0.E0,0.E0,-1.E0));
#70=DIRECTION('',(0.E0,1.E0,0.E0));
#71=AXIS2_PLACEMENT_3D('',#68,#69,#70);
#73=DIRECTION('',(0.E0,0.E0,1.E0));
#74=VECTOR('',#73,5.5E0);
#75=CARTESIAN_POINT('',(0.E0,-3.9E1,1.5E0));
#76=LINE('',#75,#74);
#77=CARTESIAN_POINT('',(0.E0,1.243016501135E-14,1.5E0));
#78=DIRECTION('',(0.E0,0.E0,1.E0));
#79=DIRECTION('',(0.E0,1.E0,0.E0));
#80=AXIS2_PLACEMENT_3D('',#77,#78,#79);
#82=CARTESIAN_POINT('',(0.E0,1.243016501135E-14,1.5E0));
#83=DIRECTION('',(0.E0,0.E0,-1.E0));
#84=DIRECTION('',(0.E0,1.E0,0.E0));
#85=AXIS2_PLACEMENT_3D('',#82,#83,#84);
#87=CARTESIAN_POINT('',(0.E0,1.224646799147E-14,0.E0));
#88=DIRECTION('',(0.E0,0.E0,1.E0));
#89=DIRECTION('',(0.E0,1.E0,0.E0));
#90=AXIS2_PLACEMENT_3D('',#87,#88,#89);
#92=DIRECTION('',(0.E0,0.E0,1.E0));
#93=VECTOR('',#92,1.5E0);
#94=CARTESIAN_POINT('',(0.E0,4.05E1,0.E0));
#95=LINE('',#94,#93);
#96=CARTESIAN_POINT('',(0.E0,1.224646799147E-14,0.E0));
#97=DIRECTION('',(0.E0,0.E0,-1.E0));
#98=DIRECTION('',(0.E0,1.E0,0.E0));
#99=AXIS2_PLACEMENT_3D('',#96,#97,#98);
#101=DIRECTION('',(0.E0,0.E0,1.E0));
#102=VECTOR('',#101,1.5E0);
#103=CARTESIAN_POINT('',(0.E0,-4.05E1,0.E0));
#104=LINE('',#103,#102);
#105=DIRECTION('',(0.E0,0.E0,-1.E0));
#106=VECTOR('',#105,2.5E-1);
#107=CARTESIAN_POINT('',(3.6E0,0.E0,7.E0));
#108=LINE('',#107,#106);
#109=DIRECTION('',(0.E0,0.E0,-1.E0));
#110=VECTOR('',#109,2.5E-1);
#111=CARTESIAN_POINT('',(-3.6E0,0.E0,7.E0));
#112=LINE('',#111,#110);
#113=CARTESIAN_POINT('',(0.E0,0.E0,6.75E0));
#114=DIRECTION('',(0.E0,0.E0,-1.E0));
#115=DIRECTION('',(1.E0,0.E0,0.E0));
#116=AXIS2_PLACEMENT_3D('',#113,#114,#115);
#118=CARTESIAN_POINT('',(0.E0,0.E0,6.75E0));
#119=DIRECTION('',(0.E0,0.E0,-1.E0));
#120=DIRECTION('',(-1.E0,0.E0,0.E0));
#121=AXIS2_PLACEMENT_3D('',#118,#119,#120);
#123=CARTESIAN_POINT('',(0.E0,0.E0,6.75E0));
#124=DIRECTION('',(0.E0,0.E0,1.E0));
#125=DIRECTION('',(1.E0,0.E0,0.E0));
#126=AXIS2_PLACEMENT_3D('',#123,#124,#125);
#128=CARTESIAN_POINT('',(0.E0,0.E0,6.75E0));
#129=DIRECTION('',(0.E0,0.E0,1.E0));
#130=DIRECTION('',(-1.E0,0.E0,0.E0));
#131=AXIS2_PLACEMENT_3D('',#128,#129,#130);
#133=DIRECTION('',(0.E0,0.E0,-1.E0));
#134=VECTOR('',#133,2.5E-1);
#135=CARTESIAN_POINT('',(3.85E1,0.E0,7.E0));
#136=LINE('',#135,#134);
#137=DIRECTION('',(0.E0,0.E0,-1.E0));
#138=VECTOR('',#137,2.5E-1);
#139=CARTESIAN_POINT('',(-3.85E1,0.E0,7.E0));
#140=LINE('',#139,#138);
#141=CARTESIAN_POINT('',(0.E0,4.05E1,0.E0));
#142=CARTESIAN_POINT('',(0.E0,4.05E1,1.5E0));
#143=VERTEX_POINT('',#141);
#144=VERTEX_POINT('',#142);
#145=CARTESIAN_POINT('',(0.E0,3.9E1,1.5E0));
#146=CARTESIAN_POINT('',(0.E0,3.9E1,7.E0));
#147=VERTEX_POINT('',#145);
#148=VERTEX_POINT('',#146);
#149=CARTESIAN_POINT('',(0.E0,2.6E0,7.E0));
#150=CARTESIAN_POINT('',(0.E0,2.6E0,0.E0));
#151=VERTEX_POINT('',#149);
#152=VERTEX_POINT('',#150);
#153=CARTESIAN_POINT('',(0.E0,-4.05E1,0.E0));
#154=CARTESIAN_POINT('',(0.E0,-4.05E1,1.5E0));
#155=VERTEX_POINT('',#153);
#156=VERTEX_POINT('',#154);
#157=CARTESIAN_POINT('',(0.E0,-3.9E1,1.5E0));
#158=CARTESIAN_POINT('',(0.E0,-3.9E1,7.E0));
#159=VERTEX_POINT('',#157);
#160=VERTEX_POINT('',#158);
#161=CARTESIAN_POINT('',(0.E0,-2.6E0,7.E0));
#162=CARTESIAN_POINT('',(0.E0,-2.6E0,0.E0));
#163=VERTEX_POINT('',#161);
#164=VERTEX_POINT('',#162);
#165=CARTESIAN_POINT('',(3.6E0,0.E0,6.75E0));
#166=CARTESIAN_POINT('',(-3.6E0,0.E0,6.75E0));
#167=VERTEX_POINT('',#165);
#168=VERTEX_POINT('',#166);
#169=CARTESIAN_POINT('',(3.85E1,0.E0,6.75E0));
#170=CARTESIAN_POINT('',(-3.85E1,1.025641694286E-14,6.75E0));
#171=VERTEX_POINT('',#169);
#172=VERTEX_POINT('',#170);
#173=CARTESIAN_POINT('',(-3.6E0,0.E0,7.E0));
#174=CARTESIAN_POINT('',(3.6E0,0.E0,7.E0));
#175=VERTEX_POINT('',#173);
#176=VERTEX_POINT('',#174);
#177=CARTESIAN_POINT('',(3.85E1,0.E0,7.E0));
#178=CARTESIAN_POINT('',(-3.85E1,1.028703311284E-14,7.E0));
#179=VERTEX_POINT('',#177);
#180=VERTEX_POINT('',#178);
#181=CARTESIAN_POINT('',(0.E0,1.224646799147E-14,0.E0));
#182=DIRECTION('',(0.E0,0.E0,1.E0));
#183=DIRECTION('',(0.E0,1.E0,0.E0));
#184=AXIS2_PLACEMENT_3D('',#181,#182,#183);
#185=PLANE('',#184);
#187=ORIENTED_EDGE('',*,*,#186,.F.);
#189=ORIENTED_EDGE('',*,*,#188,.T.);
#190=EDGE_LOOP('',(#187,#189));
#191=FACE_OUTER_BOUND('',#190,.F.);
#193=ORIENTED_EDGE('',*,*,#192,.F.);
#195=ORIENTED_EDGE('',*,*,#194,.T.);
#196=EDGE_LOOP('',(#193,#195));
#197=FACE_BOUND('',#196,.F.);
#198=ADVANCED_FACE('',(#191,#197),#185,.F.);
#199=CARTESIAN_POINT('',(0.E0,1.220360535350E-14,-3.5E-1));
#200=DIRECTION('',(0.E0,0.E0,1.E0));
#201=DIRECTION('',(0.E0,1.E0,0.E0));
#202=AXIS2_PLACEMENT_3D('',#199,#200,#201);
#203=CYLINDRICAL_SURFACE('',#202,2.6E0);
#205=ORIENTED_EDGE('',*,*,#204,.T.);
#206=ORIENTED_EDGE('',*,*,#192,.T.);
#208=ORIENTED_EDGE('',*,*,#207,.F.);
#210=ORIENTED_EDGE('',*,*,#209,.F.);
#211=EDGE_LOOP('',(#205,#206,#208,#210));
#212=FACE_OUTER_BOUND('',#211,.F.);
#213=ADVANCED_FACE('',(#212),#203,.F.);
#214=CARTESIAN_POINT('',(0.E0,1.220360535350E-14,-3.5E-1));
#215=DIRECTION('',(0.E0,0.E0,1.E0));
#216=DIRECTION('',(0.E0,1.E0,0.E0));
#217=AXIS2_PLACEMENT_3D('',#214,#215,#216);
#218=CYLINDRICAL_SURFACE('',#217,2.6E0);
#219=ORIENTED_EDGE('',*,*,#204,.F.);
#221=ORIENTED_EDGE('',*,*,#220,.T.);
#222=ORIENTED_EDGE('',*,*,#207,.T.);
#223=ORIENTED_EDGE('',*,*,#194,.F.);
#224=EDGE_LOOP('',(#219,#221,#222,#223));
#225=FACE_OUTER_BOUND('',#224,.F.);
#226=ADVANCED_FACE('',(#225),#218,.F.);
#227=CARTESIAN_POINT('',(0.E0,1.310372075088E-14,7.E0));
#228=DIRECTION('',(0.E0,0.E0,1.E0));
#229=DIRECTION('',(0.E0,1.E0,0.E0));
#230=AXIS2_PLACEMENT_3D('',#227,#228,#229);
#231=PLANE('',#230);
#233=ORIENTED_EDGE('',*,*,#232,.F.);
#235=ORIENTED_EDGE('',*,*,#234,.T.);
#236=EDGE_LOOP('',(#233,#235));
#237=FACE_OUTER_BOUND('',#236,.F.);
#239=ORIENTED_EDGE('',*,*,#238,.T.);
#241=ORIENTED_EDGE('',*,*,#240,.T.);
#242=EDGE_LOOP('',(#239,#241));
#243=FACE_BOUND('',#242,.F.);
#244=ADVANCED_FACE('',(#237,#243),#231,.T.);
#245=CARTESIAN_POINT('',(0.E0,1.310372075088E-14,7.E0));
#246=DIRECTION('',(0.E0,0.E0,1.E0));
#247=DIRECTION('',(0.E0,1.E0,0.E0));
#248=AXIS2_PLACEMENT_3D('',#245,#246,#247);
#249=PLANE('',#248);
#251=ORIENTED_EDGE('',*,*,#250,.F.);
#253=ORIENTED_EDGE('',*,*,#252,.F.);
#254=EDGE_LOOP('',(#251,#253));
#255=FACE_OUTER_BOUND('',#254,.F.);
#256=ORIENTED_EDGE('',*,*,#220,.F.);
#257=ORIENTED_EDGE('',*,*,#209,.T.);
#258=EDGE_LOOP('',(#256,#257));
#259=FACE_BOUND('',#258,.F.);
#260=ADVANCED_FACE('',(#255,#259),#249,.T.);
#261=CARTESIAN_POINT('',(0.E0,1.220360535350E-14,-3.5E-1));
#262=DIRECTION('',(0.E0,0.E0,1.E0));
#263=DIRECTION('',(0.E0,1.E0,0.E0));
#264=AXIS2_PLACEMENT_3D('',#261,#262,#263);
#265=CYLINDRICAL_SURFACE('',#264,3.9E1);
#267=ORIENTED_EDGE('',*,*,#266,.T.);
#268=ORIENTED_EDGE('',*,*,#232,.T.);
#270=ORIENTED_EDGE('',*,*,#269,.F.);
#272=ORIENTED_EDGE('',*,*,#271,.F.);
#273=EDGE_LOOP('',(#267,#268,#270,#272));
#274=FACE_OUTER_BOUND('',#273,.F.);
#275=ADVANCED_FACE('',(#274),#265,.T.);
#276=CARTESIAN_POINT('',(0.E0,1.220360535350E-14,-3.5E-1));
#277=DIRECTION('',(0.E0,0.E0,1.E0));
#278=DIRECTION('',(0.E0,1.E0,0.E0));
#279=AXIS2_PLACEMENT_3D('',#276,#277,#278);
#280=CYLINDRICAL_SURFACE('',#279,3.9E1);
#281=ORIENTED_EDGE('',*,*,#266,.F.);
#283=ORIENTED_EDGE('',*,*,#282,.T.);
#284=ORIENTED_EDGE('',*,*,#269,.T.);
#285=ORIENTED_EDGE('',*,*,#234,.F.);
#286=EDGE_LOOP('',(#281,#283,#284,#285));
#287=FACE_OUTER_BOUND('',#286,.F.);
#288=ADVANCED_FACE('',(#287),#280,.T.);
#289=CARTESIAN_POINT('',(0.E0,1.243016501135E-14,1.5E0));
#290=DIRECTION('',(0.E0,0.E0,1.E0));
#291=DIRECTION('',(0.E0,1.E0,0.E0));
#292=AXIS2_PLACEMENT_3D('',#289,#290,#291);
#293=PLANE('',#292);
#295=ORIENTED_EDGE('',*,*,#294,.F.);
#297=ORIENTED_EDGE('',*,*,#296,.T.);
#298=EDGE_LOOP('',(#295,#297));
#299=FACE_OUTER_BOUND('',#298,.F.);
#300=ORIENTED_EDGE('',*,*,#282,.F.);
#301=ORIENTED_EDGE('',*,*,#271,.T.);
#302=EDGE_LOOP('',(#300,#301));
#303=FACE_BOUND('',#302,.F.);
#304=ADVANCED_FACE('',(#299,#303),#293,.T.);
#305=CARTESIAN_POINT('',(0.E0,1.220360535350E-14,-3.5E-1));
#306=DIRECTION('',(0.E0,0.E0,1.E0));
#307=DIRECTION('',(0.E0,1.E0,0.E0));
#308=AXIS2_PLACEMENT_3D('',#305,#306,#307);
#309=CYLINDRICAL_SURFACE('',#308,4.05E1);
#311=ORIENTED_EDGE('',*,*,#310,.T.);
#312=ORIENTED_EDGE('',*,*,#294,.T.);
#314=ORIENTED_EDGE('',*,*,#313,.F.);
#315=ORIENTED_EDGE('',*,*,#188,.F.);
#316=EDGE_LOOP('',(#311,#312,#314,#315));
#317=FACE_OUTER_BOUND('',#316,.F.);
#318=ADVANCED_FACE('',(#317),#309,.T.);
#319=CARTESIAN_POINT('',(0.E0,1.220360535350E-14,-3.5E-1));
#320=DIRECTION('',(0.E0,0.E0,1.E0));
#321=DIRECTION('',(0.E0,1.E0,0.E0));
#322=AXIS2_PLACEMENT_3D('',#319,#320,#321);
#323=CYLINDRICAL_SURFACE('',#322,4.05E1);
#324=ORIENTED_EDGE('',*,*,#310,.F.);
#325=ORIENTED_EDGE('',*,*,#186,.T.);
#326=ORIENTED_EDGE('',*,*,#313,.T.);
#327=ORIENTED_EDGE('',*,*,#296,.F.);
#328=EDGE_LOOP('',(#324,#325,#326,#327));
#329=FACE_OUTER_BOUND('',#328,.F.);
#330=ADVANCED_FACE('',(#329),#323,.T.);
#331=CARTESIAN_POINT('',(0.E0,0.E0,7.E0));
#332=DIRECTION('',(0.E0,0.E0,1.E0));
#333=DIRECTION('',(1.E0,0.E0,0.E0));
#334=AXIS2_PLACEMENT_3D('',#331,#332,#333);
#335=CYLINDRICAL_SURFACE('',#334,3.6E0);
#336=ORIENTED_EDGE('',*,*,#250,.T.);
#338=ORIENTED_EDGE('',*,*,#337,.T.);
#340=ORIENTED_EDGE('',*,*,#339,.T.);
#342=ORIENTED_EDGE('',*,*,#341,.F.);
#343=EDGE_LOOP('',(#336,#338,#340,#342));
#344=FACE_OUTER_BOUND('',#343,.F.);
#345=ADVANCED_FACE('',(#344),#335,.T.);
#346=CARTESIAN_POINT('',(0.E0,0.E0,7.E0));
#347=DIRECTION('',(0.E0,0.E0,1.E0));
#348=DIRECTION('',(1.E0,0.E0,0.E0));
#349=AXIS2_PLACEMENT_3D('',#346,#347,#348);
#350=CYLINDRICAL_SURFACE('',#349,3.6E0);
#351=ORIENTED_EDGE('',*,*,#252,.T.);
#352=ORIENTED_EDGE('',*,*,#341,.T.);
#354=ORIENTED_EDGE('',*,*,#353,.T.);
#355=ORIENTED_EDGE('',*,*,#337,.F.);
#356=EDGE_LOOP('',(#351,#352,#354,#355));
#357=FACE_OUTER_BOUND('',#356,.F.);
#358=ADVANCED_FACE('',(#357),#350,.T.);
#359=CARTESIAN_POINT('',(0.E0,1.307310458090E-14,6.75E0));
#360=DIRECTION('',(0.E0,0.E0,1.E0));
#361=DIRECTION('',(1.E0,0.E0,0.E0));
#362=AXIS2_PLACEMENT_3D('',#359,#360,#361);
#363=PLANE('',#362);
#365=ORIENTED_EDGE('',*,*,#364,.F.);
#367=ORIENTED_EDGE('',*,*,#366,.F.);
#368=EDGE_LOOP('',(#365,#367));
#369=FACE_OUTER_BOUND('',#368,.F.);
#370=ORIENTED_EDGE('',*,*,#339,.F.);
#371=ORIENTED_EDGE('',*,*,#353,.F.);
#372=EDGE_LOOP('',(#370,#371));
#373=FACE_BOUND('',#372,.F.);
#374=ADVANCED_FACE('',(#369,#373),#363,.T.);
#375=CARTESIAN_POINT('',(0.E0,0.E0,7.E0));
#376=DIRECTION('',(0.E0,0.E0,1.E0));
#377=DIRECTION('',(1.E0,0.E0,0.E0));
#378=AXIS2_PLACEMENT_3D('',#375,#376,#377);
#379=CYLINDRICAL_SURFACE('',#378,3.85E1);
#380=ORIENTED_EDGE('',*,*,#238,.F.);
#382=ORIENTED_EDGE('',*,*,#381,.T.);
#383=ORIENTED_EDGE('',*,*,#364,.T.);
#385=ORIENTED_EDGE('',*,*,#384,.F.);
#386=EDGE_LOOP('',(#380,#382,#383,#385));
#387=FACE_OUTER_BOUND('',#386,.F.);
#388=ADVANCED_FACE('',(#387),#379,.F.);
#389=CARTESIAN_POINT('',(0.E0,0.E0,7.E0));
#390=DIRECTION('',(0.E0,0.E0,1.E0));
#391=DIRECTION('',(1.E0,0.E0,0.E0));
#392=AXIS2_PLACEMENT_3D('',#389,#390,#391);
#393=CYLINDRICAL_SURFACE('',#392,3.85E1);
#394=ORIENTED_EDGE('',*,*,#240,.F.);
#395=ORIENTED_EDGE('',*,*,#384,.T.);
#396=ORIENTED_EDGE('',*,*,#366,.T.);
#397=ORIENTED_EDGE('',*,*,#381,.F.);
#398=EDGE_LOOP('',(#394,#395,#396,#397));
#399=FACE_OUTER_BOUND('',#398,.F.);
#400=ADVANCED_FACE('',(#399),#393,.F.);
#401=CLOSED_SHELL('',(#198,#213,#226,#244,#260,#275,#288,#304,#318,#330,#345,
#358,#374,#388,#400));
#402=MANIFOLD_SOLID_BREP('',#401);
#404=DIMENSIONAL_EXPONENTS(0.E0,0.E0,0.E0,0.E0,0.E0,0.E0,0.E0);
#406=PLANE_ANGLE_MEASURE_WITH_UNIT(PLANE_ANGLE_MEASURE(1.745329251994E-2),#405);
#407=(CONVERSION_BASED_UNIT('DEGREE',#406)NAMED_UNIT(*)PLANE_ANGLE_UNIT());
#409=UNCERTAINTY_MEASURE_WITH_UNIT(LENGTH_MEASURE(1.147775438659E-2),#403,
'closure',
'Maximum model space distance between geometric entities at asserted connectivities');
#410=(GEOMETRIC_REPRESENTATION_CONTEXT(3)GLOBAL_UNCERTAINTY_ASSIGNED_CONTEXT((
#409))GLOBAL_UNIT_ASSIGNED_CONTEXT((#403,#407,#408))REPRESENTATION_CONTEXT
('ID1','3'));
#411=CARTESIAN_POINT('',(0.E0,0.E0,0.E0));
#412=DIRECTION('',(0.E0,0.E0,1.E0));
#413=DIRECTION('',(1.E0,0.E0,0.E0));
#416=APPLICATION_CONTEXT(
'CONFIGURATION CONTROLLED 3D DESIGNS OF MECHANICAL PARTS AND ASSEMBLIES');
#417=APPLICATION_PROTOCOL_DEFINITION('international standard',
'config_control_design',1994,#416);
#418=DESIGN_CONTEXT('',#416,'design');
#419=MECHANICAL_CONTEXT('',#416,'mechanical');
#420=PRODUCT('16164','16164','NOT SPECIFIED',(#419));
#421=PRODUCT_DEFINITION_FORMATION_WITH_SPECIFIED_SOURCE('1','LAST_VERSION',#420,
.MADE.);
#430=CARTESIAN_POINT('',(0.E0,0.E0,0.E0));
#431=DIRECTION('',(0.E0,0.E0,1.E0));
#432=DIRECTION('',(1.E0,0.E0,0.E0));
#433=AXIS2_PLACEMENT_3D('',#430,#431,#432);
#434=ITEM_DEFINED_TRANSFORMATION('','',#414,#433);
#435=(REPRESENTATION_RELATIONSHIP('','',#415,#427)REPRESENTATION_RELATIONSHIP_WITH_TRANSFORMATION(#434)SHAPE_REPRESENTATION_RELATIONSHIP());
#436=CONTEXT_DEPENDENT_SHAPE_REPRESENTATION(#435,#429);
#438=DIMENSIONAL_EXPONENTS(0.E0,0.E0,0.E0,0.E0,0.E0,0.E0,0.E0);
#440=PLANE_ANGLE_MEASURE_WITH_UNIT(PLANE_ANGLE_MEASURE(1.745329251994E-2),#439);
#441=(CONVERSION_BASED_UNIT('DEGREE',#440)NAMED_UNIT(*)PLANE_ANGLE_UNIT());
#443=UNCERTAINTY_MEASURE_WITH_UNIT(LENGTH_MEASURE(1.147775438659E-2),#437,
'closure',
'Maximum model space distance between geometric entities at asserted connectivities');
#444=(GEOMETRIC_REPRESENTATION_CONTEXT(3)GLOBAL_UNCERTAINTY_ASSIGNED_CONTEXT((
#443))GLOBAL_UNIT_ASSIGNED_CONTEXT((#437,#441,#442))REPRESENTATION_CONTEXT
('ID2','3'));
#445=CARTESIAN_POINT('',(0.E0,0.E0,0.E0));
#446=DIRECTION('',(0.E0,0.E0,1.E0));
#447=DIRECTION('',(1.E0,0.E0,0.E0));
#449=MECHANICAL_CONTEXT('',#416,'mechanical');
#450=PRODUCT('156817_ASM','156817_ASM','NOT SPECIFIED',(#449));
#451=PRODUCT_DEFINITION_FORMATION_WITH_SPECIFIED_SOURCE('1','LAST_VERSION',#450,
.MADE.);
#453=PRODUCT_CATEGORY('part','');
#454=PRODUCT_RELATED_PRODUCT_CATEGORY('assembly','',(#450));
#455=PRODUCT_CATEGORY_RELATIONSHIP('','',#453,#454);
#456=PRODUCT_CATEGORY('part','');
#457=PRODUCT_RELATED_PRODUCT_CATEGORY('detail','',(#420));
#458=PRODUCT_CATEGORY_RELATIONSHIP('','',#456,#457);
#459=SECURITY_CLASSIFICATION_LEVEL('unclassified');
#460=SECURITY_CLASSIFICATION('','',#459);
#461=CC_DESIGN_SECURITY_CLASSIFICATION(#460,(#421,#451,#428));
#462=APPROVAL_STATUS('approved');
#463=APPROVAL(#462,'');
#464=CC_DESIGN_APPROVAL(#463,(#460,#421,#451,#422,#452));
#465=CALENDAR_DATE(117,1,5);
#466=COORDINATED_UNIVERSAL_TIME_OFFSET(5,0,.BEHIND.);
#467=LOCAL_TIME(9,26,5.4E1,#466);
#468=DATE_AND_TIME(#465,#467);
#469=APPROVAL_DATE_TIME(#468,#463);
#470=DATE_TIME_ROLE('creation_date');
#471=CC_DESIGN_DATE_AND_TIME_ASSIGNMENT(#468,#470,(#422,#452));
#472=DATE_TIME_ROLE('classification_date');
#473=CC_DESIGN_DATE_AND_TIME_ASSIGNMENT(#468,#472,(#460));
#474=PERSON('UNSPECIFIED','UNSPECIFIED',$,$,$,$);
#475=ORGANIZATION('UNSPECIFIED','UNSPECIFIED','UNSPECIFIED');
#476=PERSON_AND_ORGANIZATION(#474,#475);
#477=APPROVAL_ROLE('approver');
#478=APPROVAL_PERSON_ORGANIZATION(#476,#463,#477);
#479=PERSON_AND_ORGANIZATION_ROLE('creator');
#480=CC_DESIGN_PERSON_AND_ORGANIZATION_ASSIGNMENT(#476,#479,(#421,#451,#422,
#452));
#481=PERSON_AND_ORGANIZATION_ROLE('design_supplier');
#482=CC_DESIGN_PERSON_AND_ORGANIZATION_ASSIGNMENT(#476,#481,(#421,#451));
#483=PERSON_AND_ORGANIZATION_ROLE('classification_officer');
#484=CC_DESIGN_PERSON_AND_ORGANIZATION_ASSIGNMENT(#476,#483,(#460));
#485=PERSON_AND_ORGANIZATION_ROLE('design_owner');
#486=CC_DESIGN_PERSON_AND_ORGANIZATION_ASSIGNMENT(#476,#485,(#450,#420));
#5=CIRCLE('',#4,2.6E0);
#10=CIRCLE('',#9,2.6E0);
#15=CIRCLE('',#14,2.6E0);
#24=CIRCLE('',#23,2.6E0);
#33=CIRCLE('',#32,3.9E1);
#38=CIRCLE('',#37,3.9E1);
#43=CIRCLE('',#42,3.6E0);
#48=CIRCLE('',#47,3.6E0);
#53=CIRCLE('',#52,3.85E1);
#58=CIRCLE('',#57,3.85E1);
#63=CIRCLE('',#62,3.9E1);
#72=CIRCLE('',#71,3.9E1);
#81=CIRCLE('',#80,4.05E1);
#86=CIRCLE('',#85,4.05E1);
#91=CIRCLE('',#90,4.05E1);
#100=CIRCLE('',#99,4.05E1);
#117=CIRCLE('',#116,3.6E0);
#122=CIRCLE('',#121,3.6E0);
#127=CIRCLE('',#126,3.85E1);
#132=CIRCLE('',#131,3.85E1);
#186=EDGE_CURVE('',#143,#155,#100,.T.);
#188=EDGE_CURVE('',#143,#155,#91,.T.);
#192=EDGE_CURVE('',#152,#164,#5,.T.);
#194=EDGE_CURVE('',#152,#164,#10,.T.);
#204=EDGE_CURVE('',#151,#152,#19,.T.);
#207=EDGE_CURVE('',#163,#164,#28,.T.);
#209=EDGE_CURVE('',#151,#163,#15,.T.);
#220=EDGE_CURVE('',#151,#163,#24,.T.);
#232=EDGE_CURVE('',#148,#160,#33,.T.);
#234=EDGE_CURVE('',#148,#160,#38,.T.);
#238=EDGE_CURVE('',#179,#180,#53,.T.);
#240=EDGE_CURVE('',#180,#179,#58,.T.);
#250=EDGE_CURVE('',#175,#176,#43,.T.);
#252=EDGE_CURVE('',#176,#175,#48,.T.);
#266=EDGE_CURVE('',#147,#148,#67,.T.);
#269=EDGE_CURVE('',#159,#160,#76,.T.);
#271=EDGE_CURVE('',#147,#159,#63,.T.);
#282=EDGE_CURVE('',#147,#159,#72,.T.);
#294=EDGE_CURVE('',#144,#156,#81,.T.);
#296=EDGE_CURVE('',#144,#156,#86,.T.);
#310=EDGE_CURVE('',#143,#144,#95,.T.);
#313=EDGE_CURVE('',#155,#156,#104,.T.);
#337=EDGE_CURVE('',#176,#167,#108,.T.);
#339=EDGE_CURVE('',#167,#168,#117,.T.);
#341=EDGE_CURVE('',#175,#168,#112,.T.);
#353=EDGE_CURVE('',#168,#167,#122,.T.);
#364=EDGE_CURVE('',#171,#172,#127,.T.);
#366=EDGE_CURVE('',#172,#171,#132,.T.);
#381=EDGE_CURVE('',#179,#171,#136,.T.);
#384=EDGE_CURVE('',#180,#172,#140,.T.);
#403=(LENGTH_UNIT()NAMED_UNIT(*)SI_UNIT(.MILLI.,.METRE.));
#405=(NAMED_UNIT(*)PLANE_ANGLE_UNIT()SI_UNIT($,.RADIAN.));
#408=(NAMED_UNIT(*)SI_UNIT($,.STERADIAN.)SOLID_ANGLE_UNIT());
#414=AXIS2_PLACEMENT_3D('',#411,#412,#413);
#415=ADVANCED_BREP_SHAPE_REPRESENTATION('',(#414,#402),#410);
#422=PRODUCT_DEFINITION('design','',#421,#418);
#423=PRODUCT_DEFINITION_SHAPE('','SHAPE FOR 16164.',#422);
#424=SHAPE_DEFINITION_REPRESENTATION(#423,#415);
#425=SHAPE_DEFINITION_REPRESENTATION(#426,#427);
#426=PRODUCT_DEFINITION_SHAPE('','SHAPE FOR 156817_ASM.',#452);
#427=SHAPE_REPRESENTATION('',(#433,#448),#444);
#428=NEXT_ASSEMBLY_USAGE_OCCURRENCE('0','Next assembly relationship','16164',
#452,#422,$);
#429=PRODUCT_DEFINITION_SHAPE('Placement #0',
'Placement of 16164 with respect to 156817_ASM',#428);
#437=(LENGTH_UNIT()NAMED_UNIT(*)SI_UNIT(.MILLI.,.METRE.));
#439=(NAMED_UNIT(*)PLANE_ANGLE_UNIT()SI_UNIT($,.RADIAN.));
#442=(NAMED_UNIT(*)SI_UNIT($,.STERADIAN.)SOLID_ANGLE_UNIT());
#448=AXIS2_PLACEMENT_3D('',#445,#446,#447);
#452=PRODUCT_DEFINITION('design','',#451,#418);
ENDSEC;
END-ISO-10303-21;
