ISO-10303-21;
HEADER;
FILE_DESCRIPTION((''),'2;1');
FILE_NAME('156814_SW','2011-10-06T',('banengservice'),('BANNER ENGINEERING'),
'PRO/ENGINEER BY PARAMETRIC TECHNOLOGY CORPORATION, 2009141',
'PRO/ENGINEER BY PARAMETRIC TECHNOLOGY CORPORATION, 2009141','');
FILE_SCHEMA(('CONFIG_CONTROL_DESIGN'));
ENDSEC;
DATA;
#1=CARTESIAN_POINT('',(0.E0,0.E0,0.E0));
#2=DIRECTION('',(0.E0,0.E0,1.E0));
#3=DIRECTION('',(0.E0,1.E0,0.E0));
#4=AXIS2_PLACEMENT_3D('',#1,#2,#3);
#6=CARTESIAN_POINT('',(0.E0,0.E0,0.E0));
#7=DIRECTION('',(0.E0,0.E0,-1.E0));
#8=DIRECTION('',(0.E0,1.E0,0.E0));
#9=AXIS2_PLACEMENT_3D('',#6,#7,#8);
#11=DIRECTION('',(0.E0,0.E0,1.E0));
#12=VECTOR('',#11,1.062992125984E-1);
#13=CARTESIAN_POINT('',(0.E0,4.960629921260E-1,0.E0));
#14=LINE('',#13,#12);
#15=CARTESIAN_POINT('',(0.E0,0.E0,0.E0));
#16=DIRECTION('',(0.E0,0.E0,-1.E0));
#17=DIRECTION('',(0.E0,1.E0,0.E0));
#18=AXIS2_PLACEMENT_3D('',#15,#16,#17);
#20=DIRECTION('',(0.E0,0.E0,1.E0));
#21=VECTOR('',#20,1.062992125984E-1);
#22=CARTESIAN_POINT('',(0.E0,-4.960629921260E-1,0.E0));
#23=LINE('',#22,#21);
#24=CARTESIAN_POINT('',(0.E0,0.E0,0.E0));
#25=DIRECTION('',(0.E0,0.E0,1.E0));
#26=DIRECTION('',(0.E0,1.E0,0.E0));
#27=AXIS2_PLACEMENT_3D('',#24,#25,#26);
#29=CARTESIAN_POINT('',(0.E0,0.E0,1.062992125984E-1));
#30=DIRECTION('',(0.E0,0.E0,1.E0));
#31=DIRECTION('',(0.E0,1.E0,0.E0));
#32=AXIS2_PLACEMENT_3D('',#29,#30,#31);
#34=DIRECTION('',(0.E0,-8.893193797451E-2,9.960377053145E-1));
#35=VECTOR('',#34,1.106747464321E-1);
#36=CARTESIAN_POINT('',(0.E0,4.960629921260E-1,1.062992125984E-1));
#37=LINE('',#36,#35);
#38=CARTESIAN_POINT('',(0.E0,0.E0,1.062992125984E-1));
#39=DIRECTION('',(0.E0,0.E0,-1.E0));
#40=DIRECTION('',(0.E0,1.E0,0.E0));
#41=AXIS2_PLACEMENT_3D('',#38,#39,#40);
#43=DIRECTION('',(0.E0,8.893193797451E-2,9.960377053145E-1));
#44=VECTOR('',#43,1.106747464321E-1);
#45=CARTESIAN_POINT('',(0.E0,-4.960629921260E-1,1.062992125984E-1));
#46=LINE('',#45,#44);
#47=CARTESIAN_POINT('',(0.E0,0.E0,2.165354330709E-1));
#48=DIRECTION('',(0.E0,0.E0,-1.E0));
#49=DIRECTION('',(0.E0,1.E0,0.E0));
#50=AXIS2_PLACEMENT_3D('',#47,#48,#49);
#52=CARTESIAN_POINT('',(0.E0,0.E0,2.165354330709E-1));
#53=DIRECTION('',(0.E0,0.E0,1.E0));
#54=DIRECTION('',(0.E0,1.E0,0.E0));
#55=AXIS2_PLACEMENT_3D('',#52,#53,#54);
#57=CARTESIAN_POINT('',(0.E0,0.E0,2.165354330709E-1));
#58=DIRECTION('',(0.E0,0.E0,1.E0));
#59=DIRECTION('',(1.E0,0.E0,0.E0));
#60=AXIS2_PLACEMENT_3D('',#57,#58,#59);
#62=CARTESIAN_POINT('',(0.E0,0.E0,2.165354330709E-1));
#63=DIRECTION('',(0.E0,0.E0,1.E0));
#64=DIRECTION('',(-1.E0,0.E0,0.E0));
#65=AXIS2_PLACEMENT_3D('',#62,#63,#64);
#67=DIRECTION('',(0.E0,0.E0,-1.E0));
#68=VECTOR('',#67,9.842519685039E-3);
#69=CARTESIAN_POINT('',(4.665354330709E-1,0.E0,2.165354330709E-1));
#70=LINE('',#69,#68);
#71=DIRECTION('',(0.E0,0.E0,-1.E0));
#72=VECTOR('',#71,9.842519685039E-3);
#73=CARTESIAN_POINT('',(-4.665354330709E-1,0.E0,2.165354330709E-1));
#74=LINE('',#73,#72);
#75=CARTESIAN_POINT('',(0.E0,0.E0,2.066929133858E-1));
#76=DIRECTION('',(0.E0,0.E0,1.E0));
#77=DIRECTION('',(1.E0,0.E0,0.E0));
#78=AXIS2_PLACEMENT_3D('',#75,#76,#77);
#80=CARTESIAN_POINT('',(0.E0,0.E0,2.066929133858E-1));
#81=DIRECTION('',(0.E0,0.E0,1.E0));
#82=DIRECTION('',(-1.E0,0.E0,0.E0));
#83=AXIS2_PLACEMENT_3D('',#80,#81,#82);
#85=CARTESIAN_POINT('',(0.E0,0.E0,-9.653543307087E-2));
#86=DIRECTION('',(0.E0,0.E0,1.E0));
#87=DIRECTION('',(0.E0,1.E0,0.E0));
#88=AXIS2_PLACEMENT_3D('',#85,#86,#87);
#90=DIRECTION('',(0.E0,0.E0,1.E0));
#91=VECTOR('',#90,9.653543307087E-2);
#92=CARTESIAN_POINT('',(0.E0,9.251968503937E-2,-9.653543307087E-2));
#93=LINE('',#92,#91);
#94=CARTESIAN_POINT('',(0.E0,0.E0,-9.653543307087E-2));
#95=DIRECTION('',(0.E0,0.E0,-1.E0));
#96=DIRECTION('',(0.E0,1.E0,0.E0));
#97=AXIS2_PLACEMENT_3D('',#94,#95,#96);
#99=DIRECTION('',(0.E0,0.E0,1.E0));
#100=VECTOR('',#99,9.653543307087E-2);
#101=CARTESIAN_POINT('',(0.E0,-9.251968503937E-2,-9.653543307087E-2));
#102=LINE('',#101,#100);
#103=CARTESIAN_POINT('',(0.E0,0.E0,-9.653543307087E-2));
#104=DIRECTION('',(0.E0,0.E0,1.E0));
#105=DIRECTION('',(0.E0,1.E0,0.E0));
#106=AXIS2_PLACEMENT_3D('',#103,#104,#105);
#108=CARTESIAN_POINT('',(0.E0,0.E0,-9.653543307087E-2));
#109=DIRECTION('',(0.E0,0.E0,-1.E0));
#110=DIRECTION('',(0.E0,1.E0,0.E0));
#111=AXIS2_PLACEMENT_3D('',#108,#109,#110);
#113=CARTESIAN_POINT('',(0.E0,0.E0,-7.874015748032E-2));
#114=DIRECTION('',(0.E0,0.E0,1.E0));
#115=DIRECTION('',(0.E0,1.E0,0.E0));
#116=AXIS2_PLACEMENT_3D('',#113,#114,#115);
#118=DIRECTION('',(0.E0,0.E0,-1.E0));
#119=VECTOR('',#118,1.779527559055E-2);
#120=CARTESIAN_POINT('',(0.E0,1.031102362205E-1,-7.874015748031E-2));
#121=LINE('',#120,#119);
#122=CARTESIAN_POINT('',(0.E0,0.E0,-7.874015748032E-2));
#123=DIRECTION('',(0.E0,0.E0,-1.E0));
#124=DIRECTION('',(0.E0,1.E0,0.E0));
#125=AXIS2_PLACEMENT_3D('',#122,#123,#124);
#127=DIRECTION('',(0.E0,0.E0,-1.E0));
#128=VECTOR('',#127,1.779527559055E-2);
#129=CARTESIAN_POINT('',(0.E0,-1.031102362205E-1,-7.874015748031E-2));
#130=LINE('',#129,#128);
#131=CARTESIAN_POINT('',(0.E0,0.E0,-7.874015748031E-2));
#132=DIRECTION('',(0.E0,0.E0,1.E0));
#133=DIRECTION('',(0.E0,1.E0,0.E0));
#134=AXIS2_PLACEMENT_3D('',#131,#132,#133);
#136=CARTESIAN_POINT('',(0.E0,0.E0,-7.874015748031E-2));
#137=DIRECTION('',(0.E0,0.E0,-1.E0));
#138=DIRECTION('',(0.E0,1.E0,0.E0));
#139=AXIS2_PLACEMENT_3D('',#136,#137,#138);
#141=CARTESIAN_POINT('',(0.E0,0.E0,-1.289397507755E-1));
#142=DIRECTION('',(0.E0,0.E0,1.E0));
#143=DIRECTION('',(0.E0,1.E0,0.E0));
#144=AXIS2_PLACEMENT_3D('',#141,#142,#143);
#146=DIRECTION('',(0.E0,-1.022015109645E-1,9.947637162445E-1));
#147=VECTOR('',#146,5.046383626121E-2);
#148=CARTESIAN_POINT('',(0.E0,1.279527559055E-1,-1.289397507755E-1));
#149=LINE('',#148,#147);
#150=CARTESIAN_POINT('',(0.E0,0.E0,-1.289397507755E-1));
#151=DIRECTION('',(0.E0,0.E0,-1.E0));
#152=DIRECTION('',(0.E0,1.E0,0.E0));
#153=AXIS2_PLACEMENT_3D('',#150,#151,#152);
#155=DIRECTION('',(0.E0,1.022015109645E-1,9.947637162445E-1));
#156=VECTOR('',#155,5.046383626121E-2);
#157=CARTESIAN_POINT('',(0.E0,-1.279527559055E-1,-1.289397507755E-1));
#158=LINE('',#157,#156);
#159=DIRECTION('',(0.E0,7.689304549086E-2,9.970393470446E-1));
#160=VECTOR('',#159,3.840081878227E-1);
#161=CARTESIAN_POINT('',(0.E0,9.842519685039E-2,-5.118110236220E-1));
#162=LINE('',#161,#160);
#163=CARTESIAN_POINT('',(0.E0,0.E0,-5.118110236220E-1));
#164=DIRECTION('',(0.E0,0.E0,-1.E0));
#165=DIRECTION('',(0.E0,1.E0,0.E0));
#166=AXIS2_PLACEMENT_3D('',#163,#164,#165);
#168=DIRECTION('',(0.E0,-7.689304549086E-2,9.970393470446E-1));
#169=VECTOR('',#168,3.840081878227E-1);
#170=CARTESIAN_POINT('',(0.E0,-9.842519685039E-2,-5.118110236220E-1));
#171=LINE('',#170,#169);
#172=CARTESIAN_POINT('',(0.E0,0.E0,-5.118110236220E-1));
#173=DIRECTION('',(0.E0,0.E0,1.E0));
#174=DIRECTION('',(0.E0,1.E0,0.E0));
#175=AXIS2_PLACEMENT_3D('',#172,#173,#174);
#177=CARTESIAN_POINT('',(0.E0,4.960629921260E-1,0.E0));
#178=CARTESIAN_POINT('',(0.E0,4.960629921260E-1,1.062992125984E-1));
#179=VERTEX_POINT('',#177);
#180=VERTEX_POINT('',#178);
#181=CARTESIAN_POINT('',(0.E0,4.862204724409E-1,2.165354330709E-1));
#182=VERTEX_POINT('',#181);
#183=CARTESIAN_POINT('',(0.E0,9.842519685039E-2,-5.118110236220E-1));
#184=CARTESIAN_POINT('',(0.E0,1.279527559055E-1,-1.289397507755E-1));
#185=VERTEX_POINT('',#183);
#186=VERTEX_POINT('',#184);
#187=CARTESIAN_POINT('',(0.E0,1.227952755906E-1,-7.874015748031E-2));
#188=VERTEX_POINT('',#187);
#189=CARTESIAN_POINT('',(0.E0,1.031102362205E-1,-7.874015748031E-2));
#190=CARTESIAN_POINT('',(0.E0,1.031102362205E-1,-9.653543307087E-2));
#191=VERTEX_POINT('',#189);
#192=VERTEX_POINT('',#190);
#193=CARTESIAN_POINT('',(0.E0,9.251968503937E-2,-9.653543307087E-2));
#194=CARTESIAN_POINT('',(0.E0,9.251968503937E-2,0.E0));
#195=VERTEX_POINT('',#193);
#196=VERTEX_POINT('',#194);
#197=CARTESIAN_POINT('',(0.E0,-4.960629921260E-1,0.E0));
#198=CARTESIAN_POINT('',(0.E0,-4.960629921260E-1,1.062992125984E-1));
#199=VERTEX_POINT('',#197);
#200=VERTEX_POINT('',#198);
#201=CARTESIAN_POINT('',(0.E0,-4.862204724409E-1,2.165354330709E-1));
#202=VERTEX_POINT('',#201);
#203=CARTESIAN_POINT('',(0.E0,-9.842519685039E-2,-5.118110236220E-1));
#204=CARTESIAN_POINT('',(0.E0,-1.279527559055E-1,-1.289397507755E-1));
#205=VERTEX_POINT('',#203);
#206=VERTEX_POINT('',#204);
#207=CARTESIAN_POINT('',(0.E0,-1.227952755906E-1,-7.874015748031E-2));
#208=VERTEX_POINT('',#207);
#209=CARTESIAN_POINT('',(0.E0,-1.031102362205E-1,-7.874015748031E-2));
#210=CARTESIAN_POINT('',(0.E0,-1.031102362205E-1,-9.653543307087E-2));
#211=VERTEX_POINT('',#209);
#212=VERTEX_POINT('',#210);
#213=CARTESIAN_POINT('',(0.E0,-9.251968503937E-2,-9.653543307087E-2));
#214=CARTESIAN_POINT('',(0.E0,-9.251968503937E-2,0.E0));
#215=VERTEX_POINT('',#213);
#216=VERTEX_POINT('',#214);
#217=CARTESIAN_POINT('',(4.665354330709E-1,0.E0,2.066929133858E-1));
#218=CARTESIAN_POINT('',(-4.665354330709E-1,0.E0,2.066929133858E-1));
#219=VERTEX_POINT('',#217);
#220=VERTEX_POINT('',#218);
#221=CARTESIAN_POINT('',(4.665354330709E-1,0.E0,2.165354330709E-1));
#222=CARTESIAN_POINT('',(-4.665354330709E-1,0.E0,2.165354330709E-1));
#223=VERTEX_POINT('',#221);
#224=VERTEX_POINT('',#222);
#225=CARTESIAN_POINT('',(0.E0,0.E0,0.E0));
#226=DIRECTION('',(0.E0,0.E0,1.E0));
#227=DIRECTION('',(0.E0,1.E0,0.E0));
#228=AXIS2_PLACEMENT_3D('',#225,#226,#227);
#229=PLANE('',#228);
#231=ORIENTED_EDGE('',*,*,#230,.F.);
#233=ORIENTED_EDGE('',*,*,#232,.T.);
#234=EDGE_LOOP('',(#231,#233));
#235=FACE_OUTER_BOUND('',#234,.F.);
#237=ORIENTED_EDGE('',*,*,#236,.F.);
#239=ORIENTED_EDGE('',*,*,#238,.T.);
#240=EDGE_LOOP('',(#237,#239));
#241=FACE_BOUND('',#240,.F.);
#242=ADVANCED_FACE('',(#235,#241),#229,.F.);
#243=CARTESIAN_POINT('',(0.E0,0.E0,-5.482283464567E-1));
#244=DIRECTION('',(0.E0,0.E0,1.E0));
#245=DIRECTION('',(0.E0,1.E0,0.E0));
#246=AXIS2_PLACEMENT_3D('',#243,#244,#245);
#247=CYLINDRICAL_SURFACE('',#246,4.960629921260E-1);
#249=ORIENTED_EDGE('',*,*,#248,.F.);
#250=ORIENTED_EDGE('',*,*,#230,.T.);
#252=ORIENTED_EDGE('',*,*,#251,.T.);
#254=ORIENTED_EDGE('',*,*,#253,.F.);
#255=EDGE_LOOP('',(#249,#250,#252,#254));
#256=FACE_OUTER_BOUND('',#255,.F.);
#257=ADVANCED_FACE('',(#256),#247,.T.);
#258=CARTESIAN_POINT('',(0.E0,0.E0,-5.482283464567E-1));
#259=DIRECTION('',(0.E0,0.E0,1.E0));
#260=DIRECTION('',(0.E0,1.E0,0.E0));
#261=AXIS2_PLACEMENT_3D('',#258,#259,#260);
#262=CYLINDRICAL_SURFACE('',#261,4.960629921260E-1);
#263=ORIENTED_EDGE('',*,*,#248,.T.);
#265=ORIENTED_EDGE('',*,*,#264,.T.);
#266=ORIENTED_EDGE('',*,*,#251,.F.);
#267=ORIENTED_EDGE('',*,*,#232,.F.);
#268=EDGE_LOOP('',(#263,#265,#266,#267));
#269=FACE_OUTER_BOUND('',#268,.F.);
#270=ADVANCED_FACE('',(#269),#262,.T.);
#271=CARTESIAN_POINT('',(0.E0,0.E0,1.614173228346E-1));
#272=DIRECTION('',(0.E0,0.E0,-1.E0));
#273=DIRECTION('',(0.E0,-1.E0,0.E0));
#274=AXIS2_PLACEMENT_3D('',#271,#272,#273);
#275=CONICAL_SURFACE('',#274,4.911417322835E-1,5.102165252358E0);
#277=ORIENTED_EDGE('',*,*,#276,.T.);
#279=ORIENTED_EDGE('',*,*,#278,.T.);
#281=ORIENTED_EDGE('',*,*,#280,.F.);
#282=ORIENTED_EDGE('',*,*,#264,.F.);
#283=EDGE_LOOP('',(#277,#279,#281,#282));
#284=FACE_OUTER_BOUND('',#283,.F.);
#285=ADVANCED_FACE('',(#284),#275,.T.);
#286=CARTESIAN_POINT('',(0.E0,0.E0,1.614173228346E-1));
#287=DIRECTION('',(0.E0,0.E0,-1.E0));
#288=DIRECTION('',(0.E0,-1.E0,0.E0));
#289=AXIS2_PLACEMENT_3D('',#286,#287,#288);
#290=CONICAL_SURFACE('',#289,4.911417322835E-1,5.102165252358E0);
#291=ORIENTED_EDGE('',*,*,#276,.F.);
#292=ORIENTED_EDGE('',*,*,#253,.T.);
#293=ORIENTED_EDGE('',*,*,#280,.T.);
#295=ORIENTED_EDGE('',*,*,#294,.F.);
#296=EDGE_LOOP('',(#291,#292,#293,#295));
#297=FACE_OUTER_BOUND('',#296,.F.);
#298=ADVANCED_FACE('',(#297),#290,.T.);
#299=CARTESIAN_POINT('',(0.E0,0.E0,2.165354330709E-1));
#300=DIRECTION('',(0.E0,0.E0,1.E0));
#301=DIRECTION('',(0.E0,1.E0,0.E0));
#302=AXIS2_PLACEMENT_3D('',#299,#300,#301);
#303=PLANE('',#302);
#304=ORIENTED_EDGE('',*,*,#294,.T.);
#305=ORIENTED_EDGE('',*,*,#278,.F.);
#306=EDGE_LOOP('',(#304,#305));
#307=FACE_OUTER_BOUND('',#306,.F.);
#309=ORIENTED_EDGE('',*,*,#308,.T.);
#311=ORIENTED_EDGE('',*,*,#310,.T.);
#312=EDGE_LOOP('',(#309,#311));
#313=FACE_BOUND('',#312,.F.);
#314=ADVANCED_FACE('',(#307,#313),#303,.T.);
#315=CARTESIAN_POINT('',(0.E0,0.E0,2.165354330709E-1));
#316=DIRECTION('',(0.E0,0.E0,1.E0));
#317=DIRECTION('',(1.E0,0.E0,0.E0));
#318=AXIS2_PLACEMENT_3D('',#315,#316,#317);
#319=CYLINDRICAL_SURFACE('',#318,4.665354330709E-1);
#320=ORIENTED_EDGE('',*,*,#308,.F.);
#322=ORIENTED_EDGE('',*,*,#321,.T.);
#324=ORIENTED_EDGE('',*,*,#323,.T.);
#326=ORIENTED_EDGE('',*,*,#325,.F.);
#327=EDGE_LOOP('',(#320,#322,#324,#326));
#328=FACE_OUTER_BOUND('',#327,.F.);
#329=ADVANCED_FACE('',(#328),#319,.F.);
#330=CARTESIAN_POINT('',(0.E0,0.E0,2.165354330709E-1));
#331=DIRECTION('',(0.E0,0.E0,1.E0));
#332=DIRECTION('',(1.E0,0.E0,0.E0));
#333=AXIS2_PLACEMENT_3D('',#330,#331,#332);
#334=CYLINDRICAL_SURFACE('',#333,4.665354330709E-1);
#335=ORIENTED_EDGE('',*,*,#310,.F.);
#336=ORIENTED_EDGE('',*,*,#325,.T.);
#338=ORIENTED_EDGE('',*,*,#337,.T.);
#339=ORIENTED_EDGE('',*,*,#321,.F.);
#340=EDGE_LOOP('',(#335,#336,#338,#339));
#341=FACE_OUTER_BOUND('',#340,.F.);
#342=ADVANCED_FACE('',(#341),#334,.F.);
#343=CARTESIAN_POINT('',(0.E0,0.E0,2.066929133858E-1));
#344=DIRECTION('',(0.E0,0.E0,1.E0));
#345=DIRECTION('',(1.E0,0.E0,0.E0));
#346=AXIS2_PLACEMENT_3D('',#343,#344,#345);
#347=PLANE('',#346);
#348=ORIENTED_EDGE('',*,*,#323,.F.);
#349=ORIENTED_EDGE('',*,*,#337,.F.);
#350=EDGE_LOOP('',(#348,#349));
#351=FACE_OUTER_BOUND('',#350,.F.);
#352=ADVANCED_FACE('',(#351),#347,.T.);
#353=CARTESIAN_POINT('',(0.E0,0.E0,-5.482283464567E-1));
#354=DIRECTION('',(0.E0,0.E0,1.E0));
#355=DIRECTION('',(0.E0,1.E0,0.E0));
#356=AXIS2_PLACEMENT_3D('',#353,#354,#355);
#357=CYLINDRICAL_SURFACE('',#356,9.251968503937E-2);
#359=ORIENTED_EDGE('',*,*,#358,.T.);
#360=ORIENTED_EDGE('',*,*,#236,.T.);
#362=ORIENTED_EDGE('',*,*,#361,.F.);
#364=ORIENTED_EDGE('',*,*,#363,.F.);
#365=EDGE_LOOP('',(#359,#360,#362,#364));
#366=FACE_OUTER_BOUND('',#365,.F.);
#367=ADVANCED_FACE('',(#366),#357,.T.);
#368=CARTESIAN_POINT('',(0.E0,0.E0,-5.482283464567E-1));
#369=DIRECTION('',(0.E0,0.E0,1.E0));
#370=DIRECTION('',(0.E0,1.E0,0.E0));
#371=AXIS2_PLACEMENT_3D('',#368,#369,#370);
#372=CYLINDRICAL_SURFACE('',#371,9.251968503937E-2);
#373=ORIENTED_EDGE('',*,*,#358,.F.);
#375=ORIENTED_EDGE('',*,*,#374,.T.);
#376=ORIENTED_EDGE('',*,*,#361,.T.);
#377=ORIENTED_EDGE('',*,*,#238,.F.);
#378=EDGE_LOOP('',(#373,#375,#376,#377));
#379=FACE_OUTER_BOUND('',#378,.F.);
#380=ADVANCED_FACE('',(#379),#372,.T.);
#381=CARTESIAN_POINT('',(0.E0,0.E0,-9.653543307087E-2));
#382=DIRECTION('',(0.E0,0.E0,1.E0));
#383=DIRECTION('',(0.E0,1.E0,0.E0));
#384=AXIS2_PLACEMENT_3D('',#381,#382,#383);
#385=PLANE('',#384);
#387=ORIENTED_EDGE('',*,*,#386,.F.);
#389=ORIENTED_EDGE('',*,*,#388,.T.);
#390=EDGE_LOOP('',(#387,#389));
#391=FACE_OUTER_BOUND('',#390,.F.);
#392=ORIENTED_EDGE('',*,*,#374,.F.);
#393=ORIENTED_EDGE('',*,*,#363,.T.);
#394=EDGE_LOOP('',(#392,#393));
#395=FACE_BOUND('',#394,.F.);
#396=ADVANCED_FACE('',(#391,#395),#385,.T.);
#397=CARTESIAN_POINT('',(0.E0,0.E0,-5.482283464567E-1));
#398=DIRECTION('',(0.E0,0.E0,1.E0));
#399=DIRECTION('',(0.E0,1.E0,0.E0));
#400=AXIS2_PLACEMENT_3D('',#397,#398,#399);
#401=CYLINDRICAL_SURFACE('',#400,1.031102362205E-1);
#403=ORIENTED_EDGE('',*,*,#402,.T.);
#404=ORIENTED_EDGE('',*,*,#386,.T.);
#406=ORIENTED_EDGE('',*,*,#405,.F.);
#408=ORIENTED_EDGE('',*,*,#407,.F.);
#409=EDGE_LOOP('',(#403,#404,#406,#408));
#410=FACE_OUTER_BOUND('',#409,.F.);
#411=ADVANCED_FACE('',(#410),#401,.F.);
#412=CARTESIAN_POINT('',(0.E0,0.E0,-5.482283464567E-1));
#413=DIRECTION('',(0.E0,0.E0,1.E0));
#414=DIRECTION('',(0.E0,1.E0,0.E0));
#415=AXIS2_PLACEMENT_3D('',#412,#413,#414);
#416=CYLINDRICAL_SURFACE('',#415,1.031102362205E-1);
#417=ORIENTED_EDGE('',*,*,#402,.F.);
#419=ORIENTED_EDGE('',*,*,#418,.T.);
#420=ORIENTED_EDGE('',*,*,#405,.T.);
#421=ORIENTED_EDGE('',*,*,#388,.F.);
#422=EDGE_LOOP('',(#417,#419,#420,#421));
#423=FACE_OUTER_BOUND('',#422,.F.);
#424=ADVANCED_FACE('',(#423),#416,.F.);
#425=CARTESIAN_POINT('',(0.E0,0.E0,-7.874015748031E-2));
#426=DIRECTION('',(0.E0,0.E0,1.E0));
#427=DIRECTION('',(0.E0,1.E0,0.E0));
#428=AXIS2_PLACEMENT_3D('',#425,#426,#427);
#429=PLANE('',#428);
#431=ORIENTED_EDGE('',*,*,#430,.F.);
#433=ORIENTED_EDGE('',*,*,#432,.T.);
#434=EDGE_LOOP('',(#431,#433));
#435=FACE_OUTER_BOUND('',#434,.F.);
#436=ORIENTED_EDGE('',*,*,#418,.F.);
#437=ORIENTED_EDGE('',*,*,#407,.T.);
#438=EDGE_LOOP('',(#436,#437));
#439=FACE_BOUND('',#438,.F.);
#440=ADVANCED_FACE('',(#435,#439),#429,.T.);
#441=CARTESIAN_POINT('',(0.E0,0.E0,-1.038399541279E-1));
#442=DIRECTION('',(0.E0,0.E0,-1.E0));
#443=DIRECTION('',(0.E0,-1.E0,0.E0));
#444=AXIS2_PLACEMENT_3D('',#441,#442,#443);
#445=CONICAL_SURFACE('',#444,1.253740157480E-1,5.865957422592E0);
#447=ORIENTED_EDGE('',*,*,#446,.T.);
#448=ORIENTED_EDGE('',*,*,#430,.T.);
#450=ORIENTED_EDGE('',*,*,#449,.F.);
#452=ORIENTED_EDGE('',*,*,#451,.F.);
#453=EDGE_LOOP('',(#447,#448,#450,#452));
#454=FACE_OUTER_BOUND('',#453,.F.);
#455=ADVANCED_FACE('',(#454),#445,.T.);
#456=CARTESIAN_POINT('',(0.E0,0.E0,-1.038399541279E-1));
#457=DIRECTION('',(0.E0,0.E0,-1.E0));
#458=DIRECTION('',(0.E0,-1.E0,0.E0));
#459=AXIS2_PLACEMENT_3D('',#456,#457,#458);
#460=CONICAL_SURFACE('',#459,1.253740157480E-1,5.865957422592E0);
#461=ORIENTED_EDGE('',*,*,#446,.F.);
#463=ORIENTED_EDGE('',*,*,#462,.T.);
#464=ORIENTED_EDGE('',*,*,#449,.T.);
#465=ORIENTED_EDGE('',*,*,#432,.F.);
#466=EDGE_LOOP('',(#461,#463,#464,#465));
#467=FACE_OUTER_BOUND('',#466,.F.);
#468=ADVANCED_FACE('',(#467),#460,.T.);
#469=CARTESIAN_POINT('',(0.E0,0.E0,-3.203753871988E-1));
#470=DIRECTION('',(0.E0,0.E0,1.E0));
#471=DIRECTION('',(0.E0,1.E0,0.E0));
#472=AXIS2_PLACEMENT_3D('',#469,#470,#471);
#473=CONICAL_SURFACE('',#472,1.131889763780E-1,4.41E0);
#475=ORIENTED_EDGE('',*,*,#474,.F.);
#477=ORIENTED_EDGE('',*,*,#476,.T.);
#479=ORIENTED_EDGE('',*,*,#478,.T.);
#480=ORIENTED_EDGE('',*,*,#462,.F.);
#481=EDGE_LOOP('',(#475,#477,#479,#480));
#482=FACE_OUTER_BOUND('',#481,.F.);
#483=ADVANCED_FACE('',(#482),#473,.T.);
#484=CARTESIAN_POINT('',(0.E0,0.E0,-3.203753871988E-1));
#485=DIRECTION('',(0.E0,0.E0,1.E0));
#486=DIRECTION('',(0.E0,1.E0,0.E0));
#487=AXIS2_PLACEMENT_3D('',#484,#485,#486);
#488=CONICAL_SURFACE('',#487,1.131889763780E-1,4.41E0);
#489=ORIENTED_EDGE('',*,*,#474,.T.);
#490=ORIENTED_EDGE('',*,*,#451,.T.);
#491=ORIENTED_EDGE('',*,*,#478,.F.);
#493=ORIENTED_EDGE('',*,*,#492,.F.);
#494=EDGE_LOOP('',(#489,#490,#491,#493));
#495=FACE_OUTER_BOUND('',#494,.F.);
#496=ADVANCED_FACE('',(#495),#488,.T.);
#497=CARTESIAN_POINT('',(0.E0,0.E0,-5.118110236220E-1));
#498=DIRECTION('',(0.E0,0.E0,1.E0));
#499=DIRECTION('',(0.E0,1.E0,0.E0));
#500=AXIS2_PLACEMENT_3D('',#497,#498,#499);
#501=PLANE('',#500);
#502=ORIENTED_EDGE('',*,*,#476,.F.);
#503=ORIENTED_EDGE('',*,*,#492,.T.);
#504=EDGE_LOOP('',(#502,#503));
#505=FACE_OUTER_BOUND('',#504,.F.);
#506=ADVANCED_FACE('',(#505),#501,.F.);
#507=CLOSED_SHELL('',(#242,#257,#270,#285,#298,#314,#329,#342,#352,#367,#380,
#396,#411,#424,#440,#455,#468,#483,#496,#506));
#508=MANIFOLD_SOLID_BREP('',#507);
#509=DIMENSIONAL_EXPONENTS(1.E0,0.E0,0.E0,0.E0,0.E0,0.E0,0.E0);
#510=(LENGTH_UNIT()NAMED_UNIT(*)SI_UNIT(.MILLI.,.METRE.));
#511=LENGTH_MEASURE_WITH_UNIT(LENGTH_MEASURE(2.54E1),#510);
#512=(CONVERSION_BASED_UNIT('INCH',#511)LENGTH_UNIT()NAMED_UNIT(#509));
#513=DIMENSIONAL_EXPONENTS(0.E0,0.E0,0.E0,0.E0,0.E0,0.E0,0.E0);
#514=(NAMED_UNIT(*)PLANE_ANGLE_UNIT()SI_UNIT($,.RADIAN.));
#515=PLANE_ANGLE_MEASURE_WITH_UNIT(PLANE_ANGLE_MEASURE(1.745329251994E-2),#514);
#516=(CONVERSION_BASED_UNIT('DEGREE',#515)NAMED_UNIT(#513)PLANE_ANGLE_UNIT());
#517=(NAMED_UNIT(*)SI_UNIT($,.STERADIAN.)SOLID_ANGLE_UNIT());
#518=UNCERTAINTY_MEASURE_WITH_UNIT(LENGTH_MEASURE(1.580796183229E-4),#512,
'closure',
'Maximum model space distance between geometric entities at asserted connectivities');
#519=(GEOMETRIC_REPRESENTATION_CONTEXT(3)GLOBAL_UNCERTAINTY_ASSIGNED_CONTEXT((
#518))GLOBAL_UNIT_ASSIGNED_CONTEXT((#512,#516,#517))REPRESENTATION_CONTEXT
('ID1','3'));
#521=APPLICATION_CONTEXT(
'CONFIGURATION CONTROLLED 3D DESIGNS OF MECHANICAL PARTS AND ASSEMBLIES');
#522=APPLICATION_PROTOCOL_DEFINITION('international standard',
'config_control_design',1994,#521);
#523=DESIGN_CONTEXT('',#521,'design');
#524=MECHANICAL_CONTEXT('',#521,'mechanical');
#525=PRODUCT('156814_SW','156814_SW','NOT SPECIFIED',(#524));
#526=PRODUCT_DEFINITION_FORMATION_WITH_SPECIFIED_SOURCE('','LAST_VERSION',#525,
.MADE.);
#530=PRODUCT_CATEGORY('part','');
#531=PRODUCT_RELATED_PRODUCT_CATEGORY('detail','',(#525));
#532=PRODUCT_CATEGORY_RELATIONSHIP('','',#530,#531);
#533=SECURITY_CLASSIFICATION_LEVEL('unclassified');
#534=SECURITY_CLASSIFICATION('','',#533);
#535=CC_DESIGN_SECURITY_CLASSIFICATION(#534,(#526));
#536=APPROVAL_STATUS('approved');
#537=APPROVAL(#536,'');
#538=CC_DESIGN_APPROVAL(#537,(#534,#526,#527));
#539=CALENDAR_DATE(111,6,10);
#540=COORDINATED_UNIVERSAL_TIME_OFFSET(5,0,.BEHIND.);
#541=LOCAL_TIME(11,6,4.9E1,#540);
#542=DATE_AND_TIME(#539,#541);
#543=APPROVAL_DATE_TIME(#542,#537);
#544=DATE_TIME_ROLE('creation_date');
#545=CC_DESIGN_DATE_AND_TIME_ASSIGNMENT(#542,#544,(#527));
#546=DATE_TIME_ROLE('classification_date');
#547=CC_DESIGN_DATE_AND_TIME_ASSIGNMENT(#542,#546,(#534));
#548=PERSON('UNSPECIFIED','UNSPECIFIED',$,$,$,$);
#549=ORGANIZATION('UNSPECIFIED','UNSPECIFIED','UNSPECIFIED');
#550=PERSON_AND_ORGANIZATION(#548,#549);
#551=APPROVAL_ROLE('approver');
#552=APPROVAL_PERSON_ORGANIZATION(#550,#537,#551);
#553=PERSON_AND_ORGANIZATION_ROLE('creator');
#554=CC_DESIGN_PERSON_AND_ORGANIZATION_ASSIGNMENT(#550,#553,(#526,#527));
#555=PERSON_AND_ORGANIZATION_ROLE('design_supplier');
#556=CC_DESIGN_PERSON_AND_ORGANIZATION_ASSIGNMENT(#550,#555,(#526));
#557=PERSON_AND_ORGANIZATION_ROLE('classification_officer');
#558=CC_DESIGN_PERSON_AND_ORGANIZATION_ASSIGNMENT(#550,#557,(#534));
#559=PERSON_AND_ORGANIZATION_ROLE('design_owner');
#560=CC_DESIGN_PERSON_AND_ORGANIZATION_ASSIGNMENT(#550,#559,(#525));
#5=CIRCLE('',#4,9.251968503937E-2);
#10=CIRCLE('',#9,9.251968503937E-2);
#19=CIRCLE('',#18,4.960629921260E-1);
#28=CIRCLE('',#27,4.960629921260E-1);
#33=CIRCLE('',#32,4.960629921260E-1);
#42=CIRCLE('',#41,4.960629921260E-1);
#51=CIRCLE('',#50,4.862204724409E-1);
#56=CIRCLE('',#55,4.862204724409E-1);
#61=CIRCLE('',#60,4.665354330709E-1);
#66=CIRCLE('',#65,4.665354330709E-1);
#79=CIRCLE('',#78,4.665354330709E-1);
#84=CIRCLE('',#83,4.665354330709E-1);
#89=CIRCLE('',#88,9.251968503937E-2);
#98=CIRCLE('',#97,9.251968503937E-2);
#107=CIRCLE('',#106,1.031102362205E-1);
#112=CIRCLE('',#111,1.031102362205E-1);
#117=CIRCLE('',#116,1.031102362205E-1);
#126=CIRCLE('',#125,1.031102362205E-1);
#135=CIRCLE('',#134,1.227952755906E-1);
#140=CIRCLE('',#139,1.227952755906E-1);
#145=CIRCLE('',#144,1.279527559055E-1);
#154=CIRCLE('',#153,1.279527559055E-1);
#167=CIRCLE('',#166,9.842519685039E-2);
#176=CIRCLE('',#175,9.842519685039E-2);
#230=EDGE_CURVE('',#179,#199,#19,.T.);
#232=EDGE_CURVE('',#179,#199,#28,.T.);
#236=EDGE_CURVE('',#196,#216,#5,.T.);
#238=EDGE_CURVE('',#196,#216,#10,.T.);
#248=EDGE_CURVE('',#179,#180,#14,.T.);
#251=EDGE_CURVE('',#199,#200,#23,.T.);
#253=EDGE_CURVE('',#180,#200,#42,.T.);
#264=EDGE_CURVE('',#180,#200,#33,.T.);
#276=EDGE_CURVE('',#180,#182,#37,.T.);
#278=EDGE_CURVE('',#182,#202,#56,.T.);
#280=EDGE_CURVE('',#200,#202,#46,.T.);
#294=EDGE_CURVE('',#182,#202,#51,.T.);
#308=EDGE_CURVE('',#223,#224,#61,.T.);
#310=EDGE_CURVE('',#224,#223,#66,.T.);
#321=EDGE_CURVE('',#223,#219,#70,.T.);
#323=EDGE_CURVE('',#219,#220,#79,.T.);
#325=EDGE_CURVE('',#224,#220,#74,.T.);
#337=EDGE_CURVE('',#220,#219,#84,.T.);
#358=EDGE_CURVE('',#195,#196,#93,.T.);
#361=EDGE_CURVE('',#215,#216,#102,.T.);
#363=EDGE_CURVE('',#195,#215,#89,.T.);
#374=EDGE_CURVE('',#195,#215,#98,.T.);
#386=EDGE_CURVE('',#192,#212,#107,.T.);
#388=EDGE_CURVE('',#192,#212,#112,.T.);
#402=EDGE_CURVE('',#191,#192,#121,.T.);
#405=EDGE_CURVE('',#211,#212,#130,.T.);
#407=EDGE_CURVE('',#191,#211,#117,.T.);
#418=EDGE_CURVE('',#191,#211,#126,.T.);
#430=EDGE_CURVE('',#188,#208,#135,.T.);
#432=EDGE_CURVE('',#188,#208,#140,.T.);
#446=EDGE_CURVE('',#186,#188,#149,.T.);
#449=EDGE_CURVE('',#206,#208,#158,.T.);
#451=EDGE_CURVE('',#186,#206,#145,.T.);
#462=EDGE_CURVE('',#186,#206,#154,.T.);
#474=EDGE_CURVE('',#185,#186,#162,.T.);
#476=EDGE_CURVE('',#185,#205,#167,.T.);
#478=EDGE_CURVE('',#205,#206,#171,.T.);
#492=EDGE_CURVE('',#185,#205,#176,.T.);
#520=ADVANCED_BREP_SHAPE_REPRESENTATION('',(#508),#519);
#527=PRODUCT_DEFINITION('design','',#526,#523);
#528=PRODUCT_DEFINITION_SHAPE('','SHAPE FOR 156814_SW.',#527);
#529=SHAPE_DEFINITION_REPRESENTATION(#528,#520);
ENDSEC;
END-ISO-10303-21;
