ISO-10303-21;
HEADER;
FILE_DESCRIPTION((''),'2;1');
FILE_NAME('156813_SW','2011-10-06T',('banengservice'),('BANNER ENGINEERING'),
'PRO/ENGINEER BY PARAMETRIC TECHNOLOGY CORPORATION, 2009141',
'PRO/ENGINEER BY PARAMETRIC TECHNOLOGY CORPORATION, 2009141','');
FILE_SCHEMA(('CONFIG_CONTROL_DESIGN'));
ENDSEC;
DATA;
#1=DIRECTION('',(0.E0,-1.E0,0.E0));
#2=VECTOR('',#1,9.763779527559E0);
#3=CARTESIAN_POINT('',(-4.881889763780E0,4.881889763780E0,0.E0));
#4=LINE('',#3,#2);
#5=DIRECTION('',(-1.E0,0.E0,0.E0));
#6=VECTOR('',#5,9.763779527559E0);
#7=CARTESIAN_POINT('',(4.881889763780E0,4.881889763780E0,0.E0));
#8=LINE('',#7,#6);
#9=DIRECTION('',(0.E0,1.E0,0.E0));
#10=VECTOR('',#9,9.763779527559E0);
#11=CARTESIAN_POINT('',(4.881889763780E0,-4.881889763780E0,0.E0));
#12=LINE('',#11,#10);
#13=DIRECTION('',(1.E0,0.E0,0.E0));
#14=VECTOR('',#13,9.763779527559E0);
#15=CARTESIAN_POINT('',(-4.881889763780E0,-4.881889763780E0,0.E0));
#16=LINE('',#15,#14);
#17=CARTESIAN_POINT('',(-4.291338582677E0,4.291338582677E0,0.E0));
#18=DIRECTION('',(0.E0,0.E0,1.E0));
#19=DIRECTION('',(1.E0,0.E0,0.E0));
#20=AXIS2_PLACEMENT_3D('',#17,#18,#19);
#22=CARTESIAN_POINT('',(-4.291338582677E0,4.291338582677E0,0.E0));
#23=DIRECTION('',(0.E0,0.E0,1.E0));
#24=DIRECTION('',(-1.E0,0.E0,0.E0));
#25=AXIS2_PLACEMENT_3D('',#22,#23,#24);
#27=CARTESIAN_POINT('',(4.291338582677E0,4.291338582677E0,0.E0));
#28=DIRECTION('',(0.E0,0.E0,1.E0));
#29=DIRECTION('',(1.E0,0.E0,0.E0));
#30=AXIS2_PLACEMENT_3D('',#27,#28,#29);
#32=CARTESIAN_POINT('',(4.291338582677E0,4.291338582677E0,0.E0));
#33=DIRECTION('',(0.E0,0.E0,1.E0));
#34=DIRECTION('',(-1.E0,0.E0,0.E0));
#35=AXIS2_PLACEMENT_3D('',#32,#33,#34);
#37=CARTESIAN_POINT('',(4.291338582677E0,-4.291338582677E0,0.E0));
#38=DIRECTION('',(0.E0,0.E0,1.E0));
#39=DIRECTION('',(1.E0,0.E0,0.E0));
#40=AXIS2_PLACEMENT_3D('',#37,#38,#39);
#42=CARTESIAN_POINT('',(4.291338582677E0,-4.291338582677E0,0.E0));
#43=DIRECTION('',(0.E0,0.E0,1.E0));
#44=DIRECTION('',(-1.E0,0.E0,0.E0));
#45=AXIS2_PLACEMENT_3D('',#42,#43,#44);
#47=CARTESIAN_POINT('',(-4.291338582677E0,-4.291338582677E0,0.E0));
#48=DIRECTION('',(0.E0,0.E0,1.E0));
#49=DIRECTION('',(1.E0,0.E0,0.E0));
#50=AXIS2_PLACEMENT_3D('',#47,#48,#49);
#52=CARTESIAN_POINT('',(-4.291338582677E0,-4.291338582677E0,0.E0));
#53=DIRECTION('',(0.E0,0.E0,1.E0));
#54=DIRECTION('',(-1.E0,0.E0,0.E0));
#55=AXIS2_PLACEMENT_3D('',#52,#53,#54);
#57=DIRECTION('',(0.E0,1.E0,0.E0));
#58=VECTOR('',#57,7.401574803150E0);
#59=CARTESIAN_POINT('',(3.700787401575E0,-3.700787401575E0,0.E0));
#60=LINE('',#59,#58);
#61=DIRECTION('',(-1.E0,0.E0,0.E0));
#62=VECTOR('',#61,7.401574803150E0);
#63=CARTESIAN_POINT('',(3.700787401575E0,3.700787401575E0,0.E0));
#64=LINE('',#63,#62);
#65=DIRECTION('',(0.E0,-1.E0,0.E0));
#66=VECTOR('',#65,7.401574803150E0);
#67=CARTESIAN_POINT('',(-3.700787401575E0,3.700787401575E0,0.E0));
#68=LINE('',#67,#66);
#69=DIRECTION('',(1.E0,0.E0,0.E0));
#70=VECTOR('',#69,7.401574803150E0);
#71=CARTESIAN_POINT('',(-3.700787401575E0,-3.700787401575E0,0.E0));
#72=LINE('',#71,#70);
#73=DIRECTION('',(0.E0,0.E0,-1.E0));
#74=VECTOR('',#73,1.771653543307E-1);
#75=CARTESIAN_POINT('',(-4.881889763780E0,4.881889763780E0,0.E0));
#76=LINE('',#75,#74);
#77=DIRECTION('',(0.E0,0.E0,-1.E0));
#78=VECTOR('',#77,1.771653543307E-1);
#79=CARTESIAN_POINT('',(-4.881889763780E0,-4.881889763780E0,0.E0));
#80=LINE('',#79,#78);
#81=DIRECTION('',(0.E0,0.E0,-1.E0));
#82=VECTOR('',#81,1.771653543307E-1);
#83=CARTESIAN_POINT('',(4.881889763780E0,-4.881889763780E0,0.E0));
#84=LINE('',#83,#82);
#85=DIRECTION('',(0.E0,0.E0,-1.E0));
#86=VECTOR('',#85,1.771653543307E-1);
#87=CARTESIAN_POINT('',(4.881889763780E0,4.881889763780E0,0.E0));
#88=LINE('',#87,#86);
#89=DIRECTION('',(0.E0,-1.E0,0.E0));
#90=VECTOR('',#89,9.763779527559E0);
#91=CARTESIAN_POINT('',(-4.881889763780E0,4.881889763780E0,-1.771653543307E-1));
#92=LINE('',#91,#90);
#93=DIRECTION('',(1.E0,0.E0,0.E0));
#94=VECTOR('',#93,9.763779527559E0);
#95=CARTESIAN_POINT('',(-4.881889763780E0,-4.881889763780E0,
-1.771653543307E-1));
#96=LINE('',#95,#94);
#97=DIRECTION('',(0.E0,1.E0,0.E0));
#98=VECTOR('',#97,9.763779527559E0);
#99=CARTESIAN_POINT('',(4.881889763780E0,-4.881889763780E0,-1.771653543307E-1));
#100=LINE('',#99,#98);
#101=DIRECTION('',(-1.E0,0.E0,0.E0));
#102=VECTOR('',#101,9.763779527559E0);
#103=CARTESIAN_POINT('',(4.881889763780E0,4.881889763780E0,-1.771653543307E-1));
#104=LINE('',#103,#102);
#105=CARTESIAN_POINT('',(-4.291338582677E0,4.291338582677E0,
-1.771653543307E-1));
#106=DIRECTION('',(0.E0,0.E0,1.E0));
#107=DIRECTION('',(1.E0,0.E0,0.E0));
#108=AXIS2_PLACEMENT_3D('',#105,#106,#107);
#110=CARTESIAN_POINT('',(-4.291338582677E0,4.291338582677E0,
-1.771653543307E-1));
#111=DIRECTION('',(0.E0,0.E0,1.E0));
#112=DIRECTION('',(-1.E0,0.E0,0.E0));
#113=AXIS2_PLACEMENT_3D('',#110,#111,#112);
#115=CARTESIAN_POINT('',(4.291338582677E0,4.291338582677E0,-1.771653543307E-1));
#116=DIRECTION('',(0.E0,0.E0,1.E0));
#117=DIRECTION('',(1.E0,0.E0,0.E0));
#118=AXIS2_PLACEMENT_3D('',#115,#116,#117);
#120=CARTESIAN_POINT('',(4.291338582677E0,4.291338582677E0,-1.771653543307E-1));
#121=DIRECTION('',(0.E0,0.E0,1.E0));
#122=DIRECTION('',(-1.E0,0.E0,0.E0));
#123=AXIS2_PLACEMENT_3D('',#120,#121,#122);
#125=CARTESIAN_POINT('',(4.291338582677E0,-4.291338582677E0,
-1.771653543307E-1));
#126=DIRECTION('',(0.E0,0.E0,1.E0));
#127=DIRECTION('',(1.E0,0.E0,0.E0));
#128=AXIS2_PLACEMENT_3D('',#125,#126,#127);
#130=CARTESIAN_POINT('',(4.291338582677E0,-4.291338582677E0,
-1.771653543307E-1));
#131=DIRECTION('',(0.E0,0.E0,1.E0));
#132=DIRECTION('',(-1.E0,0.E0,0.E0));
#133=AXIS2_PLACEMENT_3D('',#130,#131,#132);
#135=CARTESIAN_POINT('',(-4.291338582677E0,-4.291338582677E0,
-1.771653543307E-1));
#136=DIRECTION('',(0.E0,0.E0,1.E0));
#137=DIRECTION('',(1.E0,0.E0,0.E0));
#138=AXIS2_PLACEMENT_3D('',#135,#136,#137);
#140=CARTESIAN_POINT('',(-4.291338582677E0,-4.291338582677E0,
-1.771653543307E-1));
#141=DIRECTION('',(0.E0,0.E0,1.E0));
#142=DIRECTION('',(-1.E0,0.E0,0.E0));
#143=AXIS2_PLACEMENT_3D('',#140,#141,#142);
#145=DIRECTION('',(0.E0,0.E0,-1.E0));
#146=VECTOR('',#145,1.771653543307E-1);
#147=CARTESIAN_POINT('',(-4.163385826772E0,4.291338582677E0,0.E0));
#148=LINE('',#147,#146);
#149=DIRECTION('',(0.E0,0.E0,-1.E0));
#150=VECTOR('',#149,1.771653543307E-1);
#151=CARTESIAN_POINT('',(-4.419291338583E0,4.291338582677E0,0.E0));
#152=LINE('',#151,#150);
#153=DIRECTION('',(0.E0,0.E0,-1.E0));
#154=VECTOR('',#153,1.771653543307E-1);
#155=CARTESIAN_POINT('',(4.419291338583E0,4.291338582677E0,0.E0));
#156=LINE('',#155,#154);
#157=DIRECTION('',(0.E0,0.E0,-1.E0));
#158=VECTOR('',#157,1.771653543307E-1);
#159=CARTESIAN_POINT('',(4.163385826772E0,4.291338582677E0,0.E0));
#160=LINE('',#159,#158);
#161=DIRECTION('',(0.E0,0.E0,-1.E0));
#162=VECTOR('',#161,1.771653543307E-1);
#163=CARTESIAN_POINT('',(4.419291338583E0,-4.291338582677E0,0.E0));
#164=LINE('',#163,#162);
#165=DIRECTION('',(0.E0,0.E0,-1.E0));
#166=VECTOR('',#165,1.771653543307E-1);
#167=CARTESIAN_POINT('',(4.163385826772E0,-4.291338582677E0,0.E0));
#168=LINE('',#167,#166);
#169=DIRECTION('',(0.E0,0.E0,-1.E0));
#170=VECTOR('',#169,1.771653543307E-1);
#171=CARTESIAN_POINT('',(-4.163385826772E0,-4.291338582677E0,0.E0));
#172=LINE('',#171,#170);
#173=DIRECTION('',(0.E0,0.E0,-1.E0));
#174=VECTOR('',#173,1.771653543307E-1);
#175=CARTESIAN_POINT('',(-4.419291338583E0,-4.291338582677E0,0.E0));
#176=LINE('',#175,#174);
#177=DIRECTION('',(0.E0,0.E0,-1.E0));
#178=VECTOR('',#177,3.149606299213E-3);
#179=CARTESIAN_POINT('',(3.700787401575E0,-3.700787401575E0,0.E0));
#180=LINE('',#179,#178);
#181=DIRECTION('',(0.E0,0.E0,-1.E0));
#182=VECTOR('',#181,3.149606299213E-3);
#183=CARTESIAN_POINT('',(-3.700787401575E0,-3.700787401575E0,0.E0));
#184=LINE('',#183,#182);
#185=DIRECTION('',(0.E0,0.E0,-1.E0));
#186=VECTOR('',#185,3.149606299213E-3);
#187=CARTESIAN_POINT('',(-3.700787401575E0,3.700787401575E0,0.E0));
#188=LINE('',#187,#186);
#189=DIRECTION('',(0.E0,0.E0,-1.E0));
#190=VECTOR('',#189,3.149606299213E-3);
#191=CARTESIAN_POINT('',(3.700787401575E0,3.700787401575E0,0.E0));
#192=LINE('',#191,#190);
#193=DIRECTION('',(0.E0,1.E0,0.E0));
#194=VECTOR('',#193,7.401574803150E0);
#195=CARTESIAN_POINT('',(3.700787401575E0,-3.700787401575E0,
-3.149606299213E-3));
#196=LINE('',#195,#194);
#197=DIRECTION('',(1.E0,0.E0,0.E0));
#198=VECTOR('',#197,7.401574803150E0);
#199=CARTESIAN_POINT('',(-3.700787401575E0,-3.700787401575E0,
-3.149606299213E-3));
#200=LINE('',#199,#198);
#201=DIRECTION('',(0.E0,-1.E0,0.E0));
#202=VECTOR('',#201,7.401574803150E0);
#203=CARTESIAN_POINT('',(-3.700787401575E0,3.700787401575E0,
-3.149606299213E-3));
#204=LINE('',#203,#202);
#205=DIRECTION('',(-1.E0,0.E0,0.E0));
#206=VECTOR('',#205,7.401574803150E0);
#207=CARTESIAN_POINT('',(3.700787401575E0,3.700787401575E0,-3.149606299213E-3));
#208=LINE('',#207,#206);
#209=CARTESIAN_POINT('',(-4.881889763780E0,4.881889763780E0,0.E0));
#210=CARTESIAN_POINT('',(-4.881889763780E0,-4.881889763780E0,0.E0));
#211=VERTEX_POINT('',#209);
#212=VERTEX_POINT('',#210);
#213=CARTESIAN_POINT('',(4.881889763780E0,-4.881889763780E0,0.E0));
#214=VERTEX_POINT('',#213);
#215=CARTESIAN_POINT('',(4.881889763780E0,4.881889763780E0,0.E0));
#216=VERTEX_POINT('',#215);
#217=CARTESIAN_POINT('',(-4.881889763780E0,4.881889763780E0,
-1.771653543307E-1));
#218=CARTESIAN_POINT('',(-4.881889763780E0,-4.881889763780E0,
-1.771653543307E-1));
#219=VERTEX_POINT('',#217);
#220=VERTEX_POINT('',#218);
#221=CARTESIAN_POINT('',(4.881889763780E0,-4.881889763780E0,
-1.771653543307E-1));
#222=VERTEX_POINT('',#221);
#223=CARTESIAN_POINT('',(4.881889763780E0,4.881889763780E0,-1.771653543307E-1));
#224=VERTEX_POINT('',#223);
#225=CARTESIAN_POINT('',(-4.163385826772E0,4.291338582677E0,0.E0));
#226=CARTESIAN_POINT('',(-4.419291338583E0,4.291338582677E0,0.E0));
#227=VERTEX_POINT('',#225);
#228=VERTEX_POINT('',#226);
#229=CARTESIAN_POINT('',(4.419291338583E0,4.291338582677E0,0.E0));
#230=CARTESIAN_POINT('',(4.163385826772E0,4.291338582677E0,0.E0));
#231=VERTEX_POINT('',#229);
#232=VERTEX_POINT('',#230);
#233=CARTESIAN_POINT('',(4.419291338583E0,-4.291338582677E0,0.E0));
#234=CARTESIAN_POINT('',(4.163385826772E0,-4.291338582677E0,0.E0));
#235=VERTEX_POINT('',#233);
#236=VERTEX_POINT('',#234);
#237=CARTESIAN_POINT('',(-4.163385826772E0,-4.291338582677E0,0.E0));
#238=CARTESIAN_POINT('',(-4.419291338583E0,-4.291338582677E0,0.E0));
#239=VERTEX_POINT('',#237);
#240=VERTEX_POINT('',#238);
#241=CARTESIAN_POINT('',(-4.163385826772E0,4.291338582677E0,
-1.771653543307E-1));
#242=CARTESIAN_POINT('',(-4.419291338583E0,4.291338582677E0,
-1.771653543307E-1));
#243=VERTEX_POINT('',#241);
#244=VERTEX_POINT('',#242);
#245=CARTESIAN_POINT('',(4.419291338583E0,4.291338582677E0,-1.771653543307E-1));
#246=CARTESIAN_POINT('',(4.163385826772E0,4.291338582677E0,-1.771653543307E-1));
#247=VERTEX_POINT('',#245);
#248=VERTEX_POINT('',#246);
#249=CARTESIAN_POINT('',(4.419291338583E0,-4.291338582677E0,
-1.771653543307E-1));
#250=CARTESIAN_POINT('',(4.163385826772E0,-4.291338582677E0,
-1.771653543307E-1));
#251=VERTEX_POINT('',#249);
#252=VERTEX_POINT('',#250);
#253=CARTESIAN_POINT('',(-4.163385826772E0,-4.291338582677E0,
-1.771653543307E-1));
#254=CARTESIAN_POINT('',(-4.419291338583E0,-4.291338582677E0,
-1.771653543307E-1));
#255=VERTEX_POINT('',#253);
#256=VERTEX_POINT('',#254);
#257=CARTESIAN_POINT('',(3.700787401575E0,-3.700787401575E0,
-3.149606299213E-3));
#258=CARTESIAN_POINT('',(3.700787401575E0,3.700787401575E0,-3.149606299213E-3));
#259=VERTEX_POINT('',#257);
#260=VERTEX_POINT('',#258);
#261=CARTESIAN_POINT('',(-3.700787401575E0,3.700787401575E0,
-3.149606299213E-3));
#262=VERTEX_POINT('',#261);
#263=CARTESIAN_POINT('',(-3.700787401575E0,-3.700787401575E0,
-3.149606299213E-3));
#264=VERTEX_POINT('',#263);
#265=CARTESIAN_POINT('',(3.700787401575E0,-3.700787401575E0,0.E0));
#266=CARTESIAN_POINT('',(3.700787401575E0,3.700787401575E0,0.E0));
#267=VERTEX_POINT('',#265);
#268=VERTEX_POINT('',#266);
#269=CARTESIAN_POINT('',(-3.700787401575E0,3.700787401575E0,0.E0));
#270=VERTEX_POINT('',#269);
#271=CARTESIAN_POINT('',(-3.700787401575E0,-3.700787401575E0,0.E0));
#272=VERTEX_POINT('',#271);
#273=CARTESIAN_POINT('',(0.E0,0.E0,0.E0));
#274=DIRECTION('',(0.E0,0.E0,1.E0));
#275=DIRECTION('',(1.E0,0.E0,0.E0));
#276=AXIS2_PLACEMENT_3D('',#273,#274,#275);
#277=PLANE('',#276);
#279=ORIENTED_EDGE('',*,*,#278,.F.);
#281=ORIENTED_EDGE('',*,*,#280,.F.);
#283=ORIENTED_EDGE('',*,*,#282,.F.);
#285=ORIENTED_EDGE('',*,*,#284,.F.);
#286=EDGE_LOOP('',(#279,#281,#283,#285));
#287=FACE_OUTER_BOUND('',#286,.F.);
#289=ORIENTED_EDGE('',*,*,#288,.T.);
#291=ORIENTED_EDGE('',*,*,#290,.T.);
#292=EDGE_LOOP('',(#289,#291));
#293=FACE_BOUND('',#292,.F.);
#295=ORIENTED_EDGE('',*,*,#294,.T.);
#297=ORIENTED_EDGE('',*,*,#296,.T.);
#298=EDGE_LOOP('',(#295,#297));
#299=FACE_BOUND('',#298,.F.);
#301=ORIENTED_EDGE('',*,*,#300,.T.);
#303=ORIENTED_EDGE('',*,*,#302,.T.);
#304=EDGE_LOOP('',(#301,#303));
#305=FACE_BOUND('',#304,.F.);
#307=ORIENTED_EDGE('',*,*,#306,.T.);
#309=ORIENTED_EDGE('',*,*,#308,.T.);
#310=EDGE_LOOP('',(#307,#309));
#311=FACE_BOUND('',#310,.F.);
#313=ORIENTED_EDGE('',*,*,#312,.T.);
#315=ORIENTED_EDGE('',*,*,#314,.T.);
#317=ORIENTED_EDGE('',*,*,#316,.T.);
#319=ORIENTED_EDGE('',*,*,#318,.T.);
#320=EDGE_LOOP('',(#313,#315,#317,#319));
#321=FACE_BOUND('',#320,.F.);
#322=ADVANCED_FACE('',(#287,#293,#299,#305,#311,#321),#277,.T.);
#323=CARTESIAN_POINT('',(-4.881889763780E0,4.881889763780E0,0.E0));
#324=DIRECTION('',(-1.E0,0.E0,0.E0));
#325=DIRECTION('',(0.E0,-1.E0,0.E0));
#326=AXIS2_PLACEMENT_3D('',#323,#324,#325);
#327=PLANE('',#326);
#328=ORIENTED_EDGE('',*,*,#278,.T.);
#330=ORIENTED_EDGE('',*,*,#329,.T.);
#332=ORIENTED_EDGE('',*,*,#331,.F.);
#334=ORIENTED_EDGE('',*,*,#333,.F.);
#335=EDGE_LOOP('',(#328,#330,#332,#334));
#336=FACE_OUTER_BOUND('',#335,.F.);
#337=ADVANCED_FACE('',(#336),#327,.T.);
#338=CARTESIAN_POINT('',(-4.881889763780E0,-4.881889763780E0,0.E0));
#339=DIRECTION('',(0.E0,-1.E0,0.E0));
#340=DIRECTION('',(1.E0,0.E0,0.E0));
#341=AXIS2_PLACEMENT_3D('',#338,#339,#340);
#342=PLANE('',#341);
#343=ORIENTED_EDGE('',*,*,#284,.T.);
#345=ORIENTED_EDGE('',*,*,#344,.T.);
#347=ORIENTED_EDGE('',*,*,#346,.F.);
#348=ORIENTED_EDGE('',*,*,#329,.F.);
#349=EDGE_LOOP('',(#343,#345,#347,#348));
#350=FACE_OUTER_BOUND('',#349,.F.);
#351=ADVANCED_FACE('',(#350),#342,.T.);
#352=CARTESIAN_POINT('',(4.881889763780E0,-4.881889763780E0,0.E0));
#353=DIRECTION('',(1.E0,0.E0,0.E0));
#354=DIRECTION('',(0.E0,1.E0,0.E0));
#355=AXIS2_PLACEMENT_3D('',#352,#353,#354);
#356=PLANE('',#355);
#357=ORIENTED_EDGE('',*,*,#282,.T.);
#359=ORIENTED_EDGE('',*,*,#358,.T.);
#361=ORIENTED_EDGE('',*,*,#360,.F.);
#362=ORIENTED_EDGE('',*,*,#344,.F.);
#363=EDGE_LOOP('',(#357,#359,#361,#362));
#364=FACE_OUTER_BOUND('',#363,.F.);
#365=ADVANCED_FACE('',(#364),#356,.T.);
#366=CARTESIAN_POINT('',(4.881889763780E0,4.881889763780E0,0.E0));
#367=DIRECTION('',(0.E0,1.E0,0.E0));
#368=DIRECTION('',(-1.E0,0.E0,0.E0));
#369=AXIS2_PLACEMENT_3D('',#366,#367,#368);
#370=PLANE('',#369);
#371=ORIENTED_EDGE('',*,*,#280,.T.);
#372=ORIENTED_EDGE('',*,*,#333,.T.);
#374=ORIENTED_EDGE('',*,*,#373,.F.);
#375=ORIENTED_EDGE('',*,*,#358,.F.);
#376=EDGE_LOOP('',(#371,#372,#374,#375));
#377=FACE_OUTER_BOUND('',#376,.F.);
#378=ADVANCED_FACE('',(#377),#370,.T.);
#379=CARTESIAN_POINT('',(0.E0,0.E0,-1.771653543307E-1));
#380=DIRECTION('',(0.E0,0.E0,1.E0));
#381=DIRECTION('',(1.E0,0.E0,0.E0));
#382=AXIS2_PLACEMENT_3D('',#379,#380,#381);
#383=PLANE('',#382);
#384=ORIENTED_EDGE('',*,*,#331,.T.);
#385=ORIENTED_EDGE('',*,*,#346,.T.);
#386=ORIENTED_EDGE('',*,*,#360,.T.);
#387=ORIENTED_EDGE('',*,*,#373,.T.);
#388=EDGE_LOOP('',(#384,#385,#386,#387));
#389=FACE_OUTER_BOUND('',#388,.F.);
#391=ORIENTED_EDGE('',*,*,#390,.F.);
#393=ORIENTED_EDGE('',*,*,#392,.F.);
#394=EDGE_LOOP('',(#391,#393));
#395=FACE_BOUND('',#394,.F.);
#397=ORIENTED_EDGE('',*,*,#396,.F.);
#399=ORIENTED_EDGE('',*,*,#398,.F.);
#400=EDGE_LOOP('',(#397,#399));
#401=FACE_BOUND('',#400,.F.);
#403=ORIENTED_EDGE('',*,*,#402,.F.);
#405=ORIENTED_EDGE('',*,*,#404,.F.);
#406=EDGE_LOOP('',(#403,#405));
#407=FACE_BOUND('',#406,.F.);
#409=ORIENTED_EDGE('',*,*,#408,.F.);
#411=ORIENTED_EDGE('',*,*,#410,.F.);
#412=EDGE_LOOP('',(#409,#411));
#413=FACE_BOUND('',#412,.F.);
#414=ADVANCED_FACE('',(#389,#395,#401,#407,#413),#383,.F.);
#415=CARTESIAN_POINT('',(-4.291338582677E0,4.291338582677E0,0.E0));
#416=DIRECTION('',(0.E0,0.E0,1.E0));
#417=DIRECTION('',(1.E0,0.E0,0.E0));
#418=AXIS2_PLACEMENT_3D('',#415,#416,#417);
#419=CYLINDRICAL_SURFACE('',#418,1.279527559055E-1);
#420=ORIENTED_EDGE('',*,*,#288,.F.);
#422=ORIENTED_EDGE('',*,*,#421,.T.);
#423=ORIENTED_EDGE('',*,*,#390,.T.);
#425=ORIENTED_EDGE('',*,*,#424,.F.);
#426=EDGE_LOOP('',(#420,#422,#423,#425));
#427=FACE_OUTER_BOUND('',#426,.F.);
#428=ADVANCED_FACE('',(#427),#419,.F.);
#429=CARTESIAN_POINT('',(-4.291338582677E0,4.291338582677E0,0.E0));
#430=DIRECTION('',(0.E0,0.E0,1.E0));
#431=DIRECTION('',(1.E0,0.E0,0.E0));
#432=AXIS2_PLACEMENT_3D('',#429,#430,#431);
#433=CYLINDRICAL_SURFACE('',#432,1.279527559055E-1);
#434=ORIENTED_EDGE('',*,*,#290,.F.);
#435=ORIENTED_EDGE('',*,*,#424,.T.);
#436=ORIENTED_EDGE('',*,*,#392,.T.);
#437=ORIENTED_EDGE('',*,*,#421,.F.);
#438=EDGE_LOOP('',(#434,#435,#436,#437));
#439=FACE_OUTER_BOUND('',#438,.F.);
#440=ADVANCED_FACE('',(#439),#433,.F.);
#441=CARTESIAN_POINT('',(4.291338582677E0,4.291338582677E0,0.E0));
#442=DIRECTION('',(0.E0,0.E0,1.E0));
#443=DIRECTION('',(1.E0,0.E0,0.E0));
#444=AXIS2_PLACEMENT_3D('',#441,#442,#443);
#445=CYLINDRICAL_SURFACE('',#444,1.279527559055E-1);
#446=ORIENTED_EDGE('',*,*,#294,.F.);
#448=ORIENTED_EDGE('',*,*,#447,.T.);
#449=ORIENTED_EDGE('',*,*,#396,.T.);
#451=ORIENTED_EDGE('',*,*,#450,.F.);
#452=EDGE_LOOP('',(#446,#448,#449,#451));
#453=FACE_OUTER_BOUND('',#452,.F.);
#454=ADVANCED_FACE('',(#453),#445,.F.);
#455=CARTESIAN_POINT('',(4.291338582677E0,4.291338582677E0,0.E0));
#456=DIRECTION('',(0.E0,0.E0,1.E0));
#457=DIRECTION('',(1.E0,0.E0,0.E0));
#458=AXIS2_PLACEMENT_3D('',#455,#456,#457);
#459=CYLINDRICAL_SURFACE('',#458,1.279527559055E-1);
#460=ORIENTED_EDGE('',*,*,#296,.F.);
#461=ORIENTED_EDGE('',*,*,#450,.T.);
#462=ORIENTED_EDGE('',*,*,#398,.T.);
#463=ORIENTED_EDGE('',*,*,#447,.F.);
#464=EDGE_LOOP('',(#460,#461,#462,#463));
#465=FACE_OUTER_BOUND('',#464,.F.);
#466=ADVANCED_FACE('',(#465),#459,.F.);
#467=CARTESIAN_POINT('',(4.291338582677E0,-4.291338582677E0,0.E0));
#468=DIRECTION('',(0.E0,0.E0,1.E0));
#469=DIRECTION('',(1.E0,0.E0,0.E0));
#470=AXIS2_PLACEMENT_3D('',#467,#468,#469);
#471=CYLINDRICAL_SURFACE('',#470,1.279527559055E-1);
#472=ORIENTED_EDGE('',*,*,#300,.F.);
#474=ORIENTED_EDGE('',*,*,#473,.T.);
#475=ORIENTED_EDGE('',*,*,#402,.T.);
#477=ORIENTED_EDGE('',*,*,#476,.F.);
#478=EDGE_LOOP('',(#472,#474,#475,#477));
#479=FACE_OUTER_BOUND('',#478,.F.);
#480=ADVANCED_FACE('',(#479),#471,.F.);
#481=CARTESIAN_POINT('',(4.291338582677E0,-4.291338582677E0,0.E0));
#482=DIRECTION('',(0.E0,0.E0,1.E0));
#483=DIRECTION('',(1.E0,0.E0,0.E0));
#484=AXIS2_PLACEMENT_3D('',#481,#482,#483);
#485=CYLINDRICAL_SURFACE('',#484,1.279527559055E-1);
#486=ORIENTED_EDGE('',*,*,#302,.F.);
#487=ORIENTED_EDGE('',*,*,#476,.T.);
#488=ORIENTED_EDGE('',*,*,#404,.T.);
#489=ORIENTED_EDGE('',*,*,#473,.F.);
#490=EDGE_LOOP('',(#486,#487,#488,#489));
#491=FACE_OUTER_BOUND('',#490,.F.);
#492=ADVANCED_FACE('',(#491),#485,.F.);
#493=CARTESIAN_POINT('',(-4.291338582677E0,-4.291338582677E0,0.E0));
#494=DIRECTION('',(0.E0,0.E0,1.E0));
#495=DIRECTION('',(1.E0,0.E0,0.E0));
#496=AXIS2_PLACEMENT_3D('',#493,#494,#495);
#497=CYLINDRICAL_SURFACE('',#496,1.279527559055E-1);
#498=ORIENTED_EDGE('',*,*,#306,.F.);
#500=ORIENTED_EDGE('',*,*,#499,.T.);
#501=ORIENTED_EDGE('',*,*,#408,.T.);
#503=ORIENTED_EDGE('',*,*,#502,.F.);
#504=EDGE_LOOP('',(#498,#500,#501,#503));
#505=FACE_OUTER_BOUND('',#504,.F.);
#506=ADVANCED_FACE('',(#505),#497,.F.);
#507=CARTESIAN_POINT('',(-4.291338582677E0,-4.291338582677E0,0.E0));
#508=DIRECTION('',(0.E0,0.E0,1.E0));
#509=DIRECTION('',(1.E0,0.E0,0.E0));
#510=AXIS2_PLACEMENT_3D('',#507,#508,#509);
#511=CYLINDRICAL_SURFACE('',#510,1.279527559055E-1);
#512=ORIENTED_EDGE('',*,*,#308,.F.);
#513=ORIENTED_EDGE('',*,*,#502,.T.);
#514=ORIENTED_EDGE('',*,*,#410,.T.);
#515=ORIENTED_EDGE('',*,*,#499,.F.);
#516=EDGE_LOOP('',(#512,#513,#514,#515));
#517=FACE_OUTER_BOUND('',#516,.F.);
#518=ADVANCED_FACE('',(#517),#511,.F.);
#519=CARTESIAN_POINT('',(3.700787401575E0,-3.700787401575E0,0.E0));
#520=DIRECTION('',(1.E0,0.E0,0.E0));
#521=DIRECTION('',(0.E0,1.E0,0.E0));
#522=AXIS2_PLACEMENT_3D('',#519,#520,#521);
#523=PLANE('',#522);
#524=ORIENTED_EDGE('',*,*,#312,.F.);
#526=ORIENTED_EDGE('',*,*,#525,.T.);
#528=ORIENTED_EDGE('',*,*,#527,.T.);
#530=ORIENTED_EDGE('',*,*,#529,.F.);
#531=EDGE_LOOP('',(#524,#526,#528,#530));
#532=FACE_OUTER_BOUND('',#531,.F.);
#533=ADVANCED_FACE('',(#532),#523,.F.);
#534=CARTESIAN_POINT('',(-3.700787401575E0,-3.700787401575E0,0.E0));
#535=DIRECTION('',(0.E0,-1.E0,0.E0));
#536=DIRECTION('',(1.E0,0.E0,0.E0));
#537=AXIS2_PLACEMENT_3D('',#534,#535,#536);
#538=PLANE('',#537);
#539=ORIENTED_EDGE('',*,*,#318,.F.);
#541=ORIENTED_EDGE('',*,*,#540,.T.);
#543=ORIENTED_EDGE('',*,*,#542,.T.);
#544=ORIENTED_EDGE('',*,*,#525,.F.);
#545=EDGE_LOOP('',(#539,#541,#543,#544));
#546=FACE_OUTER_BOUND('',#545,.F.);
#547=ADVANCED_FACE('',(#546),#538,.F.);
#548=CARTESIAN_POINT('',(-3.700787401575E0,3.700787401575E0,0.E0));
#549=DIRECTION('',(-1.E0,0.E0,0.E0));
#550=DIRECTION('',(0.E0,-1.E0,0.E0));
#551=AXIS2_PLACEMENT_3D('',#548,#549,#550);
#552=PLANE('',#551);
#553=ORIENTED_EDGE('',*,*,#316,.F.);
#555=ORIENTED_EDGE('',*,*,#554,.T.);
#557=ORIENTED_EDGE('',*,*,#556,.T.);
#558=ORIENTED_EDGE('',*,*,#540,.F.);
#559=EDGE_LOOP('',(#553,#555,#557,#558));
#560=FACE_OUTER_BOUND('',#559,.F.);
#561=ADVANCED_FACE('',(#560),#552,.F.);
#562=CARTESIAN_POINT('',(3.700787401575E0,3.700787401575E0,0.E0));
#563=DIRECTION('',(0.E0,1.E0,0.E0));
#564=DIRECTION('',(-1.E0,0.E0,0.E0));
#565=AXIS2_PLACEMENT_3D('',#562,#563,#564);
#566=PLANE('',#565);
#567=ORIENTED_EDGE('',*,*,#314,.F.);
#568=ORIENTED_EDGE('',*,*,#529,.T.);
#570=ORIENTED_EDGE('',*,*,#569,.T.);
#571=ORIENTED_EDGE('',*,*,#554,.F.);
#572=EDGE_LOOP('',(#567,#568,#570,#571));
#573=FACE_OUTER_BOUND('',#572,.F.);
#574=ADVANCED_FACE('',(#573),#566,.F.);
#575=CARTESIAN_POINT('',(0.E0,0.E0,-3.149606299213E-3));
#576=DIRECTION('',(0.E0,0.E0,1.E0));
#577=DIRECTION('',(1.E0,0.E0,0.E0));
#578=AXIS2_PLACEMENT_3D('',#575,#576,#577);
#579=PLANE('',#578);
#580=ORIENTED_EDGE('',*,*,#527,.F.);
#581=ORIENTED_EDGE('',*,*,#542,.F.);
#582=ORIENTED_EDGE('',*,*,#556,.F.);
#583=ORIENTED_EDGE('',*,*,#569,.F.);
#584=EDGE_LOOP('',(#580,#581,#582,#583));
#585=FACE_OUTER_BOUND('',#584,.F.);
#586=ADVANCED_FACE('',(#585),#579,.T.);
#587=CLOSED_SHELL('',(#322,#337,#351,#365,#378,#414,#428,#440,#454,#466,#480,
#492,#506,#518,#533,#547,#561,#574,#586));
#588=MANIFOLD_SOLID_BREP('',#587);
#589=DIMENSIONAL_EXPONENTS(1.E0,0.E0,0.E0,0.E0,0.E0,0.E0,0.E0);
#590=(LENGTH_UNIT()NAMED_UNIT(*)SI_UNIT(.MILLI.,.METRE.));
#591=LENGTH_MEASURE_WITH_UNIT(LENGTH_MEASURE(2.54E1),#590);
#592=(CONVERSION_BASED_UNIT('INCH',#591)LENGTH_UNIT()NAMED_UNIT(#589));
#593=DIMENSIONAL_EXPONENTS(0.E0,0.E0,0.E0,0.E0,0.E0,0.E0,0.E0);
#594=(NAMED_UNIT(*)PLANE_ANGLE_UNIT()SI_UNIT($,.RADIAN.));
#595=PLANE_ANGLE_MEASURE_WITH_UNIT(PLANE_ANGLE_MEASURE(1.745329251994E-2),#594);
#596=(CONVERSION_BASED_UNIT('DEGREE',#595)NAMED_UNIT(#593)PLANE_ANGLE_UNIT());
#597=(NAMED_UNIT(*)SI_UNIT($,.STERADIAN.)SOLID_ANGLE_UNIT());
#598=UNCERTAINTY_MEASURE_WITH_UNIT(LENGTH_MEASURE(1.518826881563E-3),#592,
'closure',
'Maximum model space distance between geometric entities at asserted connectivities');
#599=(GEOMETRIC_REPRESENTATION_CONTEXT(3)GLOBAL_UNCERTAINTY_ASSIGNED_CONTEXT((
#598))GLOBAL_UNIT_ASSIGNED_CONTEXT((#592,#596,#597))REPRESENTATION_CONTEXT
('ID1','3'));
#601=APPLICATION_CONTEXT(
'CONFIGURATION CONTROLLED 3D DESIGNS OF MECHANICAL PARTS AND ASSEMBLIES');
#602=APPLICATION_PROTOCOL_DEFINITION('international standard',
'config_control_design',1994,#601);
#603=DESIGN_CONTEXT('',#601,'design');
#604=MECHANICAL_CONTEXT('',#601,'mechanical');
#605=PRODUCT('156813_SW','156813_SW','NOT SPECIFIED',(#604));
#606=PRODUCT_DEFINITION_FORMATION_WITH_SPECIFIED_SOURCE('','LAST_VERSION',#605,
.MADE.);
#610=PRODUCT_CATEGORY('part','');
#611=PRODUCT_RELATED_PRODUCT_CATEGORY('detail','',(#605));
#612=PRODUCT_CATEGORY_RELATIONSHIP('','',#610,#611);
#613=SECURITY_CLASSIFICATION_LEVEL('unclassified');
#614=SECURITY_CLASSIFICATION('','',#613);
#615=CC_DESIGN_SECURITY_CLASSIFICATION(#614,(#606));
#616=APPROVAL_STATUS('approved');
#617=APPROVAL(#616,'');
#618=CC_DESIGN_APPROVAL(#617,(#614,#606,#607));
#619=CALENDAR_DATE(111,6,10);
#620=COORDINATED_UNIVERSAL_TIME_OFFSET(5,0,.BEHIND.);
#621=LOCAL_TIME(11,6,1.8E1,#620);
#622=DATE_AND_TIME(#619,#621);
#623=APPROVAL_DATE_TIME(#622,#617);
#624=DATE_TIME_ROLE('creation_date');
#625=CC_DESIGN_DATE_AND_TIME_ASSIGNMENT(#622,#624,(#607));
#626=DATE_TIME_ROLE('classification_date');
#627=CC_DESIGN_DATE_AND_TIME_ASSIGNMENT(#622,#626,(#614));
#628=PERSON('UNSPECIFIED','UNSPECIFIED',$,$,$,$);
#629=ORGANIZATION('UNSPECIFIED','UNSPECIFIED','UNSPECIFIED');
#630=PERSON_AND_ORGANIZATION(#628,#629);
#631=APPROVAL_ROLE('approver');
#632=APPROVAL_PERSON_ORGANIZATION(#630,#617,#631);
#633=PERSON_AND_ORGANIZATION_ROLE('creator');
#634=CC_DESIGN_PERSON_AND_ORGANIZATION_ASSIGNMENT(#630,#633,(#606,#607));
#635=PERSON_AND_ORGANIZATION_ROLE('design_supplier');
#636=CC_DESIGN_PERSON_AND_ORGANIZATION_ASSIGNMENT(#630,#635,(#606));
#637=PERSON_AND_ORGANIZATION_ROLE('classification_officer');
#638=CC_DESIGN_PERSON_AND_ORGANIZATION_ASSIGNMENT(#630,#637,(#614));
#639=PERSON_AND_ORGANIZATION_ROLE('design_owner');
#640=CC_DESIGN_PERSON_AND_ORGANIZATION_ASSIGNMENT(#630,#639,(#605));
#21=CIRCLE('',#20,1.279527559055E-1);
#26=CIRCLE('',#25,1.279527559055E-1);
#31=CIRCLE('',#30,1.279527559055E-1);
#36=CIRCLE('',#35,1.279527559055E-1);
#41=CIRCLE('',#40,1.279527559055E-1);
#46=CIRCLE('',#45,1.279527559055E-1);
#51=CIRCLE('',#50,1.279527559055E-1);
#56=CIRCLE('',#55,1.279527559055E-1);
#109=CIRCLE('',#108,1.279527559055E-1);
#114=CIRCLE('',#113,1.279527559055E-1);
#119=CIRCLE('',#118,1.279527559055E-1);
#124=CIRCLE('',#123,1.279527559055E-1);
#129=CIRCLE('',#128,1.279527559055E-1);
#134=CIRCLE('',#133,1.279527559055E-1);
#139=CIRCLE('',#138,1.279527559055E-1);
#144=CIRCLE('',#143,1.279527559055E-1);
#278=EDGE_CURVE('',#211,#212,#4,.T.);
#280=EDGE_CURVE('',#216,#211,#8,.T.);
#282=EDGE_CURVE('',#214,#216,#12,.T.);
#284=EDGE_CURVE('',#212,#214,#16,.T.);
#288=EDGE_CURVE('',#227,#228,#21,.T.);
#290=EDGE_CURVE('',#228,#227,#26,.T.);
#294=EDGE_CURVE('',#231,#232,#31,.T.);
#296=EDGE_CURVE('',#232,#231,#36,.T.);
#300=EDGE_CURVE('',#235,#236,#41,.T.);
#302=EDGE_CURVE('',#236,#235,#46,.T.);
#306=EDGE_CURVE('',#239,#240,#51,.T.);
#308=EDGE_CURVE('',#240,#239,#56,.T.);
#312=EDGE_CURVE('',#267,#268,#60,.T.);
#314=EDGE_CURVE('',#268,#270,#64,.T.);
#316=EDGE_CURVE('',#270,#272,#68,.T.);
#318=EDGE_CURVE('',#272,#267,#72,.T.);
#329=EDGE_CURVE('',#212,#220,#80,.T.);
#331=EDGE_CURVE('',#219,#220,#92,.T.);
#333=EDGE_CURVE('',#211,#219,#76,.T.);
#344=EDGE_CURVE('',#214,#222,#84,.T.);
#346=EDGE_CURVE('',#220,#222,#96,.T.);
#358=EDGE_CURVE('',#216,#224,#88,.T.);
#360=EDGE_CURVE('',#222,#224,#100,.T.);
#373=EDGE_CURVE('',#224,#219,#104,.T.);
#390=EDGE_CURVE('',#243,#244,#109,.T.);
#392=EDGE_CURVE('',#244,#243,#114,.T.);
#396=EDGE_CURVE('',#247,#248,#119,.T.);
#398=EDGE_CURVE('',#248,#247,#124,.T.);
#402=EDGE_CURVE('',#251,#252,#129,.T.);
#404=EDGE_CURVE('',#252,#251,#134,.T.);
#408=EDGE_CURVE('',#255,#256,#139,.T.);
#410=EDGE_CURVE('',#256,#255,#144,.T.);
#421=EDGE_CURVE('',#227,#243,#148,.T.);
#424=EDGE_CURVE('',#228,#244,#152,.T.);
#447=EDGE_CURVE('',#231,#247,#156,.T.);
#450=EDGE_CURVE('',#232,#248,#160,.T.);
#473=EDGE_CURVE('',#235,#251,#164,.T.);
#476=EDGE_CURVE('',#236,#252,#168,.T.);
#499=EDGE_CURVE('',#239,#255,#172,.T.);
#502=EDGE_CURVE('',#240,#256,#176,.T.);
#525=EDGE_CURVE('',#267,#259,#180,.T.);
#527=EDGE_CURVE('',#259,#260,#196,.T.);
#529=EDGE_CURVE('',#268,#260,#192,.T.);
#540=EDGE_CURVE('',#272,#264,#184,.T.);
#542=EDGE_CURVE('',#264,#259,#200,.T.);
#554=EDGE_CURVE('',#270,#262,#188,.T.);
#556=EDGE_CURVE('',#262,#264,#204,.T.);
#569=EDGE_CURVE('',#260,#262,#208,.T.);
#600=ADVANCED_BREP_SHAPE_REPRESENTATION('',(#588),#599);
#607=PRODUCT_DEFINITION('design','',#606,#603);
#608=PRODUCT_DEFINITION_SHAPE('','SHAPE FOR 156813_SW.',#607);
#609=SHAPE_DEFINITION_REPRESENTATION(#608,#600);
ENDSEC;
END-ISO-10303-21;
