ISO-10303-21;
HEADER;
FILE_DESCRIPTION((''),'2;1');
FILE_NAME('156807_SW','2011-10-06T',('banengservice'),('BANNER ENGINEERING'),
'PRO/ENGINEER BY PARAMETRIC TECHNOLOGY CORPORATION, 2009141',
'PRO/ENGINEER BY PARAMETRIC TECHNOLOGY CORPORATION, 2009141','');
FILE_SCHEMA(('CONFIG_CONTROL_DESIGN'));
ENDSEC;
DATA;
#1=DIRECTION('',(0.E0,-1.E0,0.E0));
#2=VECTOR('',#1,4.330708661417E-1);
#3=CARTESIAN_POINT('',(-2.165354330709E-1,2.165354330709E-1,
-7.283464566929E-2));
#4=LINE('',#3,#2);
#5=DIRECTION('',(1.E0,0.E0,0.E0));
#6=VECTOR('',#5,4.330708661417E-1);
#7=CARTESIAN_POINT('',(-2.165354330709E-1,-2.165354330709E-1,
-7.283464566929E-2));
#8=LINE('',#7,#6);
#9=DIRECTION('',(0.E0,1.E0,0.E0));
#10=VECTOR('',#9,4.330708661417E-1);
#11=CARTESIAN_POINT('',(2.165354330709E-1,-2.165354330709E-1,
-7.283464566929E-2));
#12=LINE('',#11,#10);
#13=DIRECTION('',(-1.E0,0.E0,0.E0));
#14=VECTOR('',#13,4.330708661417E-1);
#15=CARTESIAN_POINT('',(2.165354330709E-1,2.165354330709E-1,
-7.283464566929E-2));
#16=LINE('',#15,#14);
#17=DIRECTION('',(0.E0,0.E0,1.E0));
#18=VECTOR('',#17,1.456692913386E-1);
#19=CARTESIAN_POINT('',(-2.165354330709E-1,2.165354330709E-1,
-7.283464566929E-2));
#20=LINE('',#19,#18);
#21=DIRECTION('',(0.E0,0.E0,1.E0));
#22=VECTOR('',#21,1.456692913386E-1);
#23=CARTESIAN_POINT('',(2.165354330709E-1,2.165354330709E-1,
-7.283464566929E-2));
#24=LINE('',#23,#22);
#25=DIRECTION('',(0.E0,0.E0,1.E0));
#26=VECTOR('',#25,1.456692913386E-1);
#27=CARTESIAN_POINT('',(2.165354330709E-1,-2.165354330709E-1,
-7.283464566929E-2));
#28=LINE('',#27,#26);
#29=DIRECTION('',(0.E0,0.E0,1.E0));
#30=VECTOR('',#29,1.456692913386E-1);
#31=CARTESIAN_POINT('',(-2.165354330709E-1,-2.165354330709E-1,
-7.283464566929E-2));
#32=LINE('',#31,#30);
#33=DIRECTION('',(0.E0,-1.E0,0.E0));
#34=VECTOR('',#33,4.330708661417E-1);
#35=CARTESIAN_POINT('',(-2.165354330709E-1,2.165354330709E-1,
7.283464566929E-2));
#36=LINE('',#35,#34);
#37=DIRECTION('',(-1.E0,0.E0,0.E0));
#38=VECTOR('',#37,4.330708661417E-1);
#39=CARTESIAN_POINT('',(2.165354330709E-1,2.165354330709E-1,7.283464566929E-2));
#40=LINE('',#39,#38);
#41=DIRECTION('',(0.E0,1.E0,0.E0));
#42=VECTOR('',#41,4.330708661417E-1);
#43=CARTESIAN_POINT('',(2.165354330709E-1,-2.165354330709E-1,
7.283464566929E-2));
#44=LINE('',#43,#42);
#45=DIRECTION('',(1.E0,0.E0,0.E0));
#46=VECTOR('',#45,4.330708661417E-1);
#47=CARTESIAN_POINT('',(-2.165354330709E-1,-2.165354330709E-1,
7.283464566929E-2));
#48=LINE('',#47,#46);
#49=DIRECTION('',(0.E0,-1.E0,0.E0));
#50=VECTOR('',#49,3.937007874016E-1);
#51=CARTESIAN_POINT('',(-1.968503937008E-1,1.968503937008E-1,
7.283464566929E-2));
#52=LINE('',#51,#50);
#53=DIRECTION('',(1.E0,0.E0,0.E0));
#54=VECTOR('',#53,3.937007874016E-1);
#55=CARTESIAN_POINT('',(-1.968503937008E-1,-1.968503937008E-1,
7.283464566929E-2));
#56=LINE('',#55,#54);
#57=DIRECTION('',(0.E0,1.E0,0.E0));
#58=VECTOR('',#57,3.937007874016E-1);
#59=CARTESIAN_POINT('',(1.968503937008E-1,-1.968503937008E-1,
7.283464566929E-2));
#60=LINE('',#59,#58);
#61=DIRECTION('',(-1.E0,0.E0,0.E0));
#62=VECTOR('',#61,3.937007874016E-1);
#63=CARTESIAN_POINT('',(1.968503937008E-1,1.968503937008E-1,7.283464566929E-2));
#64=LINE('',#63,#62);
#65=DIRECTION('',(0.E0,0.E0,-1.E0));
#66=VECTOR('',#65,7.874015748031E-3);
#67=CARTESIAN_POINT('',(-1.968503937008E-1,1.968503937008E-1,
7.283464566929E-2));
#68=LINE('',#67,#66);
#69=DIRECTION('',(0.E0,0.E0,-1.E0));
#70=VECTOR('',#69,7.874015748031E-3);
#71=CARTESIAN_POINT('',(1.968503937008E-1,1.968503937008E-1,7.283464566929E-2));
#72=LINE('',#71,#70);
#73=DIRECTION('',(0.E0,0.E0,-1.E0));
#74=VECTOR('',#73,7.874015748031E-3);
#75=CARTESIAN_POINT('',(1.968503937008E-1,-1.968503937008E-1,
7.283464566929E-2));
#76=LINE('',#75,#74);
#77=DIRECTION('',(0.E0,0.E0,-1.E0));
#78=VECTOR('',#77,7.874015748031E-3);
#79=CARTESIAN_POINT('',(-1.968503937008E-1,-1.968503937008E-1,
7.283464566929E-2));
#80=LINE('',#79,#78);
#81=DIRECTION('',(0.E0,-1.E0,0.E0));
#82=VECTOR('',#81,3.937007874016E-1);
#83=CARTESIAN_POINT('',(-1.968503937008E-1,1.968503937008E-1,
6.496062992126E-2));
#84=LINE('',#83,#82);
#85=DIRECTION('',(-1.E0,0.E0,0.E0));
#86=VECTOR('',#85,3.937007874016E-1);
#87=CARTESIAN_POINT('',(1.968503937008E-1,1.968503937008E-1,6.496062992126E-2));
#88=LINE('',#87,#86);
#89=DIRECTION('',(0.E0,1.E0,0.E0));
#90=VECTOR('',#89,3.937007874016E-1);
#91=CARTESIAN_POINT('',(1.968503937008E-1,-1.968503937008E-1,
6.496062992126E-2));
#92=LINE('',#91,#90);
#93=DIRECTION('',(1.E0,0.E0,0.E0));
#94=VECTOR('',#93,3.937007874016E-1);
#95=CARTESIAN_POINT('',(-1.968503937008E-1,-1.968503937008E-1,
6.496062992126E-2));
#96=LINE('',#95,#94);
#97=CARTESIAN_POINT('',(-2.165354330709E-1,2.165354330709E-1,
-7.283464566929E-2));
#98=CARTESIAN_POINT('',(-2.165354330709E-1,-2.165354330709E-1,
-7.283464566929E-2));
#99=VERTEX_POINT('',#97);
#100=VERTEX_POINT('',#98);
#101=CARTESIAN_POINT('',(2.165354330709E-1,-2.165354330709E-1,
-7.283464566929E-2));
#102=VERTEX_POINT('',#101);
#103=CARTESIAN_POINT('',(2.165354330709E-1,2.165354330709E-1,
-7.283464566929E-2));
#104=VERTEX_POINT('',#103);
#105=CARTESIAN_POINT('',(-2.165354330709E-1,2.165354330709E-1,
7.283464566929E-2));
#106=CARTESIAN_POINT('',(-2.165354330709E-1,-2.165354330709E-1,
7.283464566929E-2));
#107=VERTEX_POINT('',#105);
#108=VERTEX_POINT('',#106);
#109=CARTESIAN_POINT('',(2.165354330709E-1,-2.165354330709E-1,
7.283464566929E-2));
#110=VERTEX_POINT('',#109);
#111=CARTESIAN_POINT('',(2.165354330709E-1,2.165354330709E-1,
7.283464566929E-2));
#112=VERTEX_POINT('',#111);
#113=CARTESIAN_POINT('',(-1.968503937008E-1,1.968503937008E-1,
6.496062992126E-2));
#114=CARTESIAN_POINT('',(-1.968503937008E-1,-1.968503937008E-1,
6.496062992126E-2));
#115=VERTEX_POINT('',#113);
#116=VERTEX_POINT('',#114);
#117=CARTESIAN_POINT('',(1.968503937008E-1,-1.968503937008E-1,
6.496062992126E-2));
#118=VERTEX_POINT('',#117);
#119=CARTESIAN_POINT('',(1.968503937008E-1,1.968503937008E-1,
6.496062992126E-2));
#120=VERTEX_POINT('',#119);
#121=CARTESIAN_POINT('',(-1.968503937008E-1,1.968503937008E-1,
7.283464566929E-2));
#122=CARTESIAN_POINT('',(-1.968503937008E-1,-1.968503937008E-1,
7.283464566929E-2));
#123=VERTEX_POINT('',#121);
#124=VERTEX_POINT('',#122);
#125=CARTESIAN_POINT('',(1.968503937008E-1,-1.968503937008E-1,
7.283464566929E-2));
#126=VERTEX_POINT('',#125);
#127=CARTESIAN_POINT('',(1.968503937008E-1,1.968503937008E-1,
7.283464566929E-2));
#128=VERTEX_POINT('',#127);
#129=CARTESIAN_POINT('',(0.E0,0.E0,-7.283464566929E-2));
#130=DIRECTION('',(0.E0,0.E0,1.E0));
#131=DIRECTION('',(1.E0,0.E0,0.E0));
#132=AXIS2_PLACEMENT_3D('',#129,#130,#131);
#133=PLANE('',#132);
#135=ORIENTED_EDGE('',*,*,#134,.T.);
#137=ORIENTED_EDGE('',*,*,#136,.T.);
#139=ORIENTED_EDGE('',*,*,#138,.T.);
#141=ORIENTED_EDGE('',*,*,#140,.T.);
#142=EDGE_LOOP('',(#135,#137,#139,#141));
#143=FACE_OUTER_BOUND('',#142,.F.);
#144=ADVANCED_FACE('',(#143),#133,.F.);
#145=CARTESIAN_POINT('',(-2.165354330709E-1,2.165354330709E-1,
-7.283464566929E-2));
#146=DIRECTION('',(-1.E0,0.E0,0.E0));
#147=DIRECTION('',(0.E0,-1.E0,0.E0));
#148=AXIS2_PLACEMENT_3D('',#145,#146,#147);
#149=PLANE('',#148);
#150=ORIENTED_EDGE('',*,*,#134,.F.);
#152=ORIENTED_EDGE('',*,*,#151,.T.);
#154=ORIENTED_EDGE('',*,*,#153,.T.);
#156=ORIENTED_EDGE('',*,*,#155,.F.);
#157=EDGE_LOOP('',(#150,#152,#154,#156));
#158=FACE_OUTER_BOUND('',#157,.F.);
#159=ADVANCED_FACE('',(#158),#149,.T.);
#160=CARTESIAN_POINT('',(2.165354330709E-1,2.165354330709E-1,
-7.283464566929E-2));
#161=DIRECTION('',(0.E0,1.E0,0.E0));
#162=DIRECTION('',(-1.E0,0.E0,0.E0));
#163=AXIS2_PLACEMENT_3D('',#160,#161,#162);
#164=PLANE('',#163);
#165=ORIENTED_EDGE('',*,*,#140,.F.);
#167=ORIENTED_EDGE('',*,*,#166,.T.);
#169=ORIENTED_EDGE('',*,*,#168,.T.);
#170=ORIENTED_EDGE('',*,*,#151,.F.);
#171=EDGE_LOOP('',(#165,#167,#169,#170));
#172=FACE_OUTER_BOUND('',#171,.F.);
#173=ADVANCED_FACE('',(#172),#164,.T.);
#174=CARTESIAN_POINT('',(2.165354330709E-1,-2.165354330709E-1,
-7.283464566929E-2));
#175=DIRECTION('',(1.E0,0.E0,0.E0));
#176=DIRECTION('',(0.E0,1.E0,0.E0));
#177=AXIS2_PLACEMENT_3D('',#174,#175,#176);
#178=PLANE('',#177);
#179=ORIENTED_EDGE('',*,*,#138,.F.);
#181=ORIENTED_EDGE('',*,*,#180,.T.);
#183=ORIENTED_EDGE('',*,*,#182,.T.);
#184=ORIENTED_EDGE('',*,*,#166,.F.);
#185=EDGE_LOOP('',(#179,#181,#183,#184));
#186=FACE_OUTER_BOUND('',#185,.F.);
#187=ADVANCED_FACE('',(#186),#178,.T.);
#188=CARTESIAN_POINT('',(-2.165354330709E-1,-2.165354330709E-1,
-7.283464566929E-2));
#189=DIRECTION('',(0.E0,-1.E0,0.E0));
#190=DIRECTION('',(1.E0,0.E0,0.E0));
#191=AXIS2_PLACEMENT_3D('',#188,#189,#190);
#192=PLANE('',#191);
#193=ORIENTED_EDGE('',*,*,#136,.F.);
#194=ORIENTED_EDGE('',*,*,#155,.T.);
#196=ORIENTED_EDGE('',*,*,#195,.T.);
#197=ORIENTED_EDGE('',*,*,#180,.F.);
#198=EDGE_LOOP('',(#193,#194,#196,#197));
#199=FACE_OUTER_BOUND('',#198,.F.);
#200=ADVANCED_FACE('',(#199),#192,.T.);
#201=CARTESIAN_POINT('',(0.E0,0.E0,7.283464566929E-2));
#202=DIRECTION('',(0.E0,0.E0,1.E0));
#203=DIRECTION('',(1.E0,0.E0,0.E0));
#204=AXIS2_PLACEMENT_3D('',#201,#202,#203);
#205=PLANE('',#204);
#206=ORIENTED_EDGE('',*,*,#153,.F.);
#207=ORIENTED_EDGE('',*,*,#168,.F.);
#208=ORIENTED_EDGE('',*,*,#182,.F.);
#209=ORIENTED_EDGE('',*,*,#195,.F.);
#210=EDGE_LOOP('',(#206,#207,#208,#209));
#211=FACE_OUTER_BOUND('',#210,.F.);
#213=ORIENTED_EDGE('',*,*,#212,.T.);
#215=ORIENTED_EDGE('',*,*,#214,.T.);
#217=ORIENTED_EDGE('',*,*,#216,.T.);
#219=ORIENTED_EDGE('',*,*,#218,.T.);
#220=EDGE_LOOP('',(#213,#215,#217,#219));
#221=FACE_BOUND('',#220,.F.);
#222=ADVANCED_FACE('',(#211,#221),#205,.T.);
#223=CARTESIAN_POINT('',(-1.968503937008E-1,1.968503937008E-1,
7.283464566929E-2));
#224=DIRECTION('',(-1.E0,0.E0,0.E0));
#225=DIRECTION('',(0.E0,-1.E0,0.E0));
#226=AXIS2_PLACEMENT_3D('',#223,#224,#225);
#227=PLANE('',#226);
#228=ORIENTED_EDGE('',*,*,#212,.F.);
#230=ORIENTED_EDGE('',*,*,#229,.T.);
#232=ORIENTED_EDGE('',*,*,#231,.T.);
#234=ORIENTED_EDGE('',*,*,#233,.F.);
#235=EDGE_LOOP('',(#228,#230,#232,#234));
#236=FACE_OUTER_BOUND('',#235,.F.);
#237=ADVANCED_FACE('',(#236),#227,.F.);
#238=CARTESIAN_POINT('',(1.968503937008E-1,1.968503937008E-1,
7.283464566929E-2));
#239=DIRECTION('',(0.E0,1.E0,0.E0));
#240=DIRECTION('',(-1.E0,0.E0,0.E0));
#241=AXIS2_PLACEMENT_3D('',#238,#239,#240);
#242=PLANE('',#241);
#243=ORIENTED_EDGE('',*,*,#218,.F.);
#245=ORIENTED_EDGE('',*,*,#244,.T.);
#247=ORIENTED_EDGE('',*,*,#246,.T.);
#248=ORIENTED_EDGE('',*,*,#229,.F.);
#249=EDGE_LOOP('',(#243,#245,#247,#248));
#250=FACE_OUTER_BOUND('',#249,.F.);
#251=ADVANCED_FACE('',(#250),#242,.F.);
#252=CARTESIAN_POINT('',(1.968503937008E-1,-1.968503937008E-1,
7.283464566929E-2));
#253=DIRECTION('',(1.E0,0.E0,0.E0));
#254=DIRECTION('',(0.E0,1.E0,0.E0));
#255=AXIS2_PLACEMENT_3D('',#252,#253,#254);
#256=PLANE('',#255);
#257=ORIENTED_EDGE('',*,*,#216,.F.);
#259=ORIENTED_EDGE('',*,*,#258,.T.);
#261=ORIENTED_EDGE('',*,*,#260,.T.);
#262=ORIENTED_EDGE('',*,*,#244,.F.);
#263=EDGE_LOOP('',(#257,#259,#261,#262));
#264=FACE_OUTER_BOUND('',#263,.F.);
#265=ADVANCED_FACE('',(#264),#256,.F.);
#266=CARTESIAN_POINT('',(-1.968503937008E-1,-1.968503937008E-1,
7.283464566929E-2));
#267=DIRECTION('',(0.E0,-1.E0,0.E0));
#268=DIRECTION('',(1.E0,0.E0,0.E0));
#269=AXIS2_PLACEMENT_3D('',#266,#267,#268);
#270=PLANE('',#269);
#271=ORIENTED_EDGE('',*,*,#214,.F.);
#272=ORIENTED_EDGE('',*,*,#233,.T.);
#274=ORIENTED_EDGE('',*,*,#273,.T.);
#275=ORIENTED_EDGE('',*,*,#258,.F.);
#276=EDGE_LOOP('',(#271,#272,#274,#275));
#277=FACE_OUTER_BOUND('',#276,.F.);
#278=ADVANCED_FACE('',(#277),#270,.F.);
#279=CARTESIAN_POINT('',(0.E0,0.E0,6.496062992126E-2));
#280=DIRECTION('',(0.E0,0.E0,1.E0));
#281=DIRECTION('',(1.E0,0.E0,0.E0));
#282=AXIS2_PLACEMENT_3D('',#279,#280,#281);
#283=PLANE('',#282);
#284=ORIENTED_EDGE('',*,*,#231,.F.);
#285=ORIENTED_EDGE('',*,*,#246,.F.);
#286=ORIENTED_EDGE('',*,*,#260,.F.);
#287=ORIENTED_EDGE('',*,*,#273,.F.);
#288=EDGE_LOOP('',(#284,#285,#286,#287));
#289=FACE_OUTER_BOUND('',#288,.F.);
#290=ADVANCED_FACE('',(#289),#283,.T.);
#291=CLOSED_SHELL('',(#144,#159,#173,#187,#200,#222,#237,#251,#265,#278,#290));
#292=MANIFOLD_SOLID_BREP('',#291);
#293=DIMENSIONAL_EXPONENTS(1.E0,0.E0,0.E0,0.E0,0.E0,0.E0,0.E0);
#294=(LENGTH_UNIT()NAMED_UNIT(*)SI_UNIT(.MILLI.,.METRE.));
#295=LENGTH_MEASURE_WITH_UNIT(LENGTH_MEASURE(2.54E1),#294);
#296=(CONVERSION_BASED_UNIT('INCH',#295)LENGTH_UNIT()NAMED_UNIT(#293));
#297=DIMENSIONAL_EXPONENTS(0.E0,0.E0,0.E0,0.E0,0.E0,0.E0,0.E0);
#298=(NAMED_UNIT(*)PLANE_ANGLE_UNIT()SI_UNIT($,.RADIAN.));
#299=PLANE_ANGLE_MEASURE_WITH_UNIT(PLANE_ANGLE_MEASURE(1.745329251994E-2),#298);
#300=(CONVERSION_BASED_UNIT('DEGREE',#299)NAMED_UNIT(#297)PLANE_ANGLE_UNIT());
#301=(NAMED_UNIT(*)SI_UNIT($,.STERADIAN.)SOLID_ANGLE_UNIT());
#302=UNCERTAINTY_MEASURE_WITH_UNIT(LENGTH_MEASURE(6.736732135965E-5),#296,
'closure',
'Maximum model space distance between geometric entities at asserted connectivities');
#303=(GEOMETRIC_REPRESENTATION_CONTEXT(3)GLOBAL_UNCERTAINTY_ASSIGNED_CONTEXT((
#302))GLOBAL_UNIT_ASSIGNED_CONTEXT((#296,#300,#301))REPRESENTATION_CONTEXT
('ID1','3'));
#305=APPLICATION_CONTEXT(
'CONFIGURATION CONTROLLED 3D DESIGNS OF MECHANICAL PARTS AND ASSEMBLIES');
#306=APPLICATION_PROTOCOL_DEFINITION('international standard',
'config_control_design',1994,#305);
#307=DESIGN_CONTEXT('',#305,'design');
#308=MECHANICAL_CONTEXT('',#305,'mechanical');
#309=PRODUCT('156807_SW','156807_SW','NOT SPECIFIED',(#308));
#310=PRODUCT_DEFINITION_FORMATION_WITH_SPECIFIED_SOURCE('','LAST_VERSION',#309,
.MADE.);
#314=PRODUCT_CATEGORY('part','');
#315=PRODUCT_RELATED_PRODUCT_CATEGORY('detail','',(#309));
#316=PRODUCT_CATEGORY_RELATIONSHIP('','',#314,#315);
#317=SECURITY_CLASSIFICATION_LEVEL('unclassified');
#318=SECURITY_CLASSIFICATION('','',#317);
#319=CC_DESIGN_SECURITY_CLASSIFICATION(#318,(#310));
#320=APPROVAL_STATUS('approved');
#321=APPROVAL(#320,'');
#322=CC_DESIGN_APPROVAL(#321,(#318,#310,#311));
#323=CALENDAR_DATE(111,6,10);
#324=COORDINATED_UNIVERSAL_TIME_OFFSET(5,0,.BEHIND.);
#325=LOCAL_TIME(11,2,4.7E1,#324);
#326=DATE_AND_TIME(#323,#325);
#327=APPROVAL_DATE_TIME(#326,#321);
#328=DATE_TIME_ROLE('creation_date');
#329=CC_DESIGN_DATE_AND_TIME_ASSIGNMENT(#326,#328,(#311));
#330=DATE_TIME_ROLE('classification_date');
#331=CC_DESIGN_DATE_AND_TIME_ASSIGNMENT(#326,#330,(#318));
#332=PERSON('UNSPECIFIED','UNSPECIFIED',$,$,$,$);
#333=ORGANIZATION('UNSPECIFIED','UNSPECIFIED','UNSPECIFIED');
#334=PERSON_AND_ORGANIZATION(#332,#333);
#335=APPROVAL_ROLE('approver');
#336=APPROVAL_PERSON_ORGANIZATION(#334,#321,#335);
#337=PERSON_AND_ORGANIZATION_ROLE('creator');
#338=CC_DESIGN_PERSON_AND_ORGANIZATION_ASSIGNMENT(#334,#337,(#310,#311));
#339=PERSON_AND_ORGANIZATION_ROLE('design_supplier');
#340=CC_DESIGN_PERSON_AND_ORGANIZATION_ASSIGNMENT(#334,#339,(#310));
#341=PERSON_AND_ORGANIZATION_ROLE('classification_officer');
#342=CC_DESIGN_PERSON_AND_ORGANIZATION_ASSIGNMENT(#334,#341,(#318));
#343=PERSON_AND_ORGANIZATION_ROLE('design_owner');
#344=CC_DESIGN_PERSON_AND_ORGANIZATION_ASSIGNMENT(#334,#343,(#309));
#134=EDGE_CURVE('',#99,#100,#4,.T.);
#136=EDGE_CURVE('',#100,#102,#8,.T.);
#138=EDGE_CURVE('',#102,#104,#12,.T.);
#140=EDGE_CURVE('',#104,#99,#16,.T.);
#151=EDGE_CURVE('',#99,#107,#20,.T.);
#153=EDGE_CURVE('',#107,#108,#36,.T.);
#155=EDGE_CURVE('',#100,#108,#32,.T.);
#166=EDGE_CURVE('',#104,#112,#24,.T.);
#168=EDGE_CURVE('',#112,#107,#40,.T.);
#180=EDGE_CURVE('',#102,#110,#28,.T.);
#182=EDGE_CURVE('',#110,#112,#44,.T.);
#195=EDGE_CURVE('',#108,#110,#48,.T.);
#212=EDGE_CURVE('',#123,#124,#52,.T.);
#214=EDGE_CURVE('',#124,#126,#56,.T.);
#216=EDGE_CURVE('',#126,#128,#60,.T.);
#218=EDGE_CURVE('',#128,#123,#64,.T.);
#229=EDGE_CURVE('',#123,#115,#68,.T.);
#231=EDGE_CURVE('',#115,#116,#84,.T.);
#233=EDGE_CURVE('',#124,#116,#80,.T.);
#244=EDGE_CURVE('',#128,#120,#72,.T.);
#246=EDGE_CURVE('',#120,#115,#88,.T.);
#258=EDGE_CURVE('',#126,#118,#76,.T.);
#260=EDGE_CURVE('',#118,#120,#92,.T.);
#273=EDGE_CURVE('',#116,#118,#96,.T.);
#304=ADVANCED_BREP_SHAPE_REPRESENTATION('',(#292),#303);
#311=PRODUCT_DEFINITION('design','',#310,#307);
#312=PRODUCT_DEFINITION_SHAPE('','SHAPE FOR 156807_SW.',#311);
#313=SHAPE_DEFINITION_REPRESENTATION(#312,#304);
ENDSEC;
END-ISO-10303-21;
