 PTC IGES file: 156807.igs                                              S      1
1H,,1H;,9H156807_SW,10H156807.igs,                                      G      1
49HPro/ENGINEER by Parametric Technology Corporation,7H2009141,32,38,7, G      2
38,15,9H156807_SW,1.,1,4HINCH,32768,0.5,15H20111006.110248,6.73673e-05, G      3
 0.6737,13Hbanengservice,7HUnknown,10,0,15H20111006.110248;             G      4
     314       1       1       1       0       0       0       001000200D      1
     314       0       4       1       0                   COLOR       1D      2
     314       2       1       1       0       0       0       001000200D      3
     314       0       1       1       0                   COLOR       2D      4
     314       3       1       1       0       0       0       001000200D      5
     314       0       4       1       0                   COLOR       3D      6
     314       4       1       1       0       0       0       001000200D      7
     314       0       1       1       0                   COLOR       4D      8
     314       5       1       1       0       0       0       001000200D      9
     314       0       1       1       0                   COLOR       5D     10
     314       6       1       1       0       0       0       001000200D     11
     314       0       8       1       0                   COLOR       6D     12
     314       7       1       1       0       0       0       001000200D     13
     314       0       8       1       0                   COLOR       7D     14
     314       8       1       1       0       0       0       001000200D     15
     314       0       5       1       0                   COLOR       8D     16
     314       9       1       1       0       0       0       001000200D     17
     314       0       8       1       0                   COLOR       9D     18
     110      10       1       1       0       0       0       001010000D     19
     110       0       0       2       0                    LINE       1D     20
     110      12       1       1       0       0       0       001010000D     21
     110       0       0       2       0                    LINE       2D     22
     110      14       1       1       0       0       0       001010000D     23
     110       0       0       2       0                    LINE       3D     24
     110      16       1       1       0       0       0       001010000D     25
     110       0       0       2       0                    LINE       4D     26
     110      18       1       1       0       0       0       001010000D     27
     110       0       0       2       0                    LINE       5D     28
     110      20       1       1       0       0       0       001010000D     29
     110       0       0       2       0                    LINE       6D     30
     110      22       1       1       0       0       0       001010000D     31
     110       0       0       2       0                    LINE       7D     32
     110      24       1       1       0       0       0       001010000D     33
     110       0       0       2       0                    LINE       8D     34
     110      26       1       1       0       0       0       001010000D     35
     110       0       0       2       0                    LINE       9D     36
     110      28       1       1       0       0       0       001010000D     37
     110       0       0       2       0                    LINE      10D     38
     110      30       1       1       0       0       0       001010000D     39
     110       0       0       2       0                    LINE      11D     40
     110      32       1       1       0       0       0       001010000D     41
     110       0       0       2       0                    LINE      12D     42
     110      34       1       1       0       0       0       001010000D     43
     110       0       0       2       0                    LINE      13D     44
     110      36       1       1       0       0       0       001010000D     45
     110       0       0       2       0                    LINE      14D     46
     110      38       1       1       0       0       0       001010000D     47
     110       0       0       2       0                    LINE      15D     48
     110      40       1       1       0       0       0       001010000D     49
     110       0       0       2       0                    LINE      16D     50
     110      42       1       1       0       0       0       001010000D     51
     110       0       0       2       0                    LINE      17D     52
     110      44       1       1       0       0       0       001010000D     53
     110       0       0       2       0                    LINE      18D     54
     110      46       1       1       0       0       0       001010000D     55
     110       0       0       2       0                    LINE      19D     56
     110      48       1       1       0       0       0       001010000D     57
     110       0       0       2       0                    LINE      20D     58
     110      50       1       1       0       0       0       001010000D     59
     110       0       0       2       0                    LINE      21D     60
     110      52       1       1       0       0       0       001010000D     61
     110       0       0       2       0                    LINE      22D     62
     110      54       1       1       0       0       0       001010000D     63
     110       0       0       2       0                    LINE      23D     64
     110      56       1       1       0       0       0       001010000D     65
     110       0       0       2       0                    LINE      24D     66
     502      58       1       1       0       0       0       001010000D     67
     502       0       0      16       1                  VERTEX       1D     68
     504      74       1       1       0       0       0       000010001D     69
     504       0       0       6       1                    EDGE       1D     70
     128      80       1       1       0       0       0       001010000D     71
     128       0       8       9       0                  SPLSRF       1D     72
     508      89       1       1       0       0       0       001010000D     73
     508       0       0       1       1                EDGELOOP       1D     74
     510      90       1       1       0       0       0       000010000D     75
     510       0       8       1       1                    FACE       1D     76
     128      91       1       1       0       0       0       001010000D     77
     128       0       8       9       0                  SPLSRF       2D     78
     508     100       1       1       0       0       0       001010000D     79
     508       0       0       1       1                EDGELOOP       2D     80
     510     101       1       1       0       0       0       000010000D     81
     510       0       8       1       1                    FACE       2D     82
     128     102       1       1       0       0       0       001010000D     83
     128       0       8       9       0                  SPLSRF       3D     84
     508     111       1       1       0       0       0       001010000D     85
     508       0       0       1       1                EDGELOOP       3D     86
     510     112       1       1       0       0       0       000010000D     87
     510       0       8       1       1                    FACE       3D     88
     128     113       1       1       0       0       0       001010000D     89
     128       0       8       9       0                  SPLSRF       4D     90
     508     122       1       1       0       0       0       001010000D     91
     508       0       0       1       1                EDGELOOP       4D     92
     510     123       1       1       0       0       0       000010000D     93
     510       0       8       1       1                    FACE       4D     94
     128     124       1       1       0       0       0       001010000D     95
     128       0       8       9       0                  SPLSRF       5D     96
     508     133       1       1       0       0       0       001010000D     97
     508       0       0       1       1                EDGELOOP       5D     98
     510     134       1       1       0       0       0       000010000D     99
     510       0       8       1       1                    FACE       5D    100
     128     135       1       1       0       0       0       001010000D    101
     128       0       8       9       0                  SPLSRF       6D    102
     508     144       1       1       0       0       0       001010000D    103
     508       0       0       1       1                EDGELOOP       6D    104
     508     145       1       1       0       0       0       001010000D    105
     508       0       0       1       1                EDGELOOP       7D    106
     510     146       1       1       0       0       0       000010000D    107
     510       0       8       1       1                    FACE       6D    108
     128     147       1       1       0       0       0       001010000D    109
     128       0       8       9       0                  SPLSRF       7D    110
     508     156       1       1       0       0       0       001010000D    111
     508       0       0       1       1                EDGELOOP       8D    112
     510     157       1       1       0       0       0       000010000D    113
     510       0       8       1       1                    FACE       7D    114
     128     158       1       1       0       0       0       001010000D    115
     128       0       8       9       0                  SPLSRF       8D    116
     508     167       1       1       0       0       0       001010000D    117
     508       0       0       1       1                EDGELOOP       9D    118
     510     168       1       1       0       0       0       000010000D    119
     510       0       8       1       1                    FACE       8D    120
     128     169       1       1       0       0       0       001010000D    121
     128       0       8       9       0                  SPLSRF       9D    122
     508     178       1       1       0       0       0       001010000D    123
     508       0       0       1       1                EDGELOOP      10D    124
     510     179       1       1       0       0       0       000010000D    125
     510       0       8       1       1                    FACE       9D    126
     128     180       1       1       0       0       0       001010000D    127
     128       0       8       9       0                  SPLSRF      10D    128
     508     189       1       1       0       0       0       001010000D    129
     508       0       0       1       1                EDGELOOP      11D    130
     510     190       1       1       0       0       0       000010000D    131
     510       0       8       1       1                    FACE      10D    132
     128     191       1       1       0       0       0       001010000D    133
     128       0       8       9       0                  SPLSRF      11D    134
     508     200       1       1       0       0       0       001010000D    135
     508       0       0       1       1                EDGELOOP      12D    136
     510     201       1       1       0       0       0       000010000D    137
     510       0       8       1       1                    FACE      11D    138
     514     202       1       1       0       0       0       000010000D    139
     514       0       0       2       1                   SHELL       1D    140
     186     204       1       1       0       0       0       000000000D    141
     186       0       0       1       0                    MSBR       1D    142
314,1.1D0,1.2D0,1D2;                                                   1P      1
314,1.1D1,1.1D1,1.1D1;                                                 3P      2
314,1.4D1,3.4D1,1D2;                                                   5P      3
314,3.92D1,1.2D0,1.2D0;                                                7P      4
314,4.1D1,0D0,2.2D1;                                                   9P      5
314,8.784D1,9.49D1,1D2;                                               11P      6
314,9.6D1,9.6D1,9.6D1;                                                13P      7
314,9.8D1,6.27D1,0D0;                                                 15P      8
314,1D2,1D2,9.49D1;                                                   17P      9
110,-2.165354330709D-1,2.165354330709D-1,-7.283464566929D-2,          19P     10
-2.165354330709D-1,-2.165354330709D-1,-7.283464566929D-2;             19P     11
110,-2.165354330709D-1,-2.165354330709D-1,-7.283464566929D-2,         21P     12
2.165354330709D-1,-2.165354330709D-1,-7.283464566929D-2;              21P     13
110,2.165354330709D-1,-2.165354330709D-1,-7.283464566929D-2,          23P     14
2.165354330709D-1,2.165354330709D-1,-7.283464566929D-2;               23P     15
110,2.165354330709D-1,2.165354330709D-1,-7.283464566929D-2,           25P     16
-2.165354330709D-1,2.165354330709D-1,-7.283464566929D-2;              25P     17
110,-2.165354330709D-1,2.165354330709D-1,-7.283464566929D-2,          27P     18
-2.165354330709D-1,2.165354330709D-1,7.283464566929D-2;               27P     19
110,2.165354330709D-1,2.165354330709D-1,-7.283464566929D-2,           29P     20
2.165354330709D-1,2.165354330709D-1,7.283464566929D-2;                29P     21
110,2.165354330709D-1,-2.165354330709D-1,-7.283464566929D-2,          31P     22
2.165354330709D-1,-2.165354330709D-1,7.283464566929D-2;               31P     23
110,-2.165354330709D-1,-2.165354330709D-1,-7.283464566929D-2,         33P     24
-2.165354330709D-1,-2.165354330709D-1,7.283464566929D-2;              33P     25
110,-2.165354330709D-1,2.165354330709D-1,7.283464566929D-2,           35P     26
-2.165354330709D-1,-2.165354330709D-1,7.283464566929D-2;              35P     27
110,2.165354330709D-1,2.165354330709D-1,7.283464566929D-2,            37P     28
-2.165354330709D-1,2.165354330709D-1,7.283464566929D-2;               37P     29
110,2.165354330709D-1,-2.165354330709D-1,7.283464566929D-2,           39P     30
2.165354330709D-1,2.165354330709D-1,7.283464566929D-2;                39P     31
110,-2.165354330709D-1,-2.165354330709D-1,7.283464566929D-2,          41P     32
2.165354330709D-1,-2.165354330709D-1,7.283464566929D-2;               41P     33
110,-1.968503937008D-1,1.968503937008D-1,7.283464566929D-2,           43P     34
-1.968503937008D-1,-1.968503937008D-1,7.283464566929D-2;              43P     35
110,-1.968503937008D-1,-1.968503937008D-1,7.283464566929D-2,          45P     36
1.968503937008D-1,-1.968503937008D-1,7.283464566929D-2;               45P     37
110,1.968503937008D-1,-1.968503937008D-1,7.283464566929D-2,           47P     38
1.968503937008D-1,1.968503937008D-1,7.283464566929D-2;                47P     39
110,1.968503937008D-1,1.968503937008D-1,7.283464566929D-2,            49P     40
-1.968503937008D-1,1.968503937008D-1,7.283464566929D-2;               49P     41
110,-1.968503937008D-1,1.968503937008D-1,7.283464566929D-2,           51P     42
-1.968503937008D-1,1.968503937008D-1,6.496062992126D-2;               51P     43
110,1.968503937008D-1,1.968503937008D-1,7.283464566929D-2,            53P     44
1.968503937008D-1,1.968503937008D-1,6.496062992126D-2;                53P     45
110,1.968503937008D-1,-1.968503937008D-1,7.283464566929D-2,           55P     46
1.968503937008D-1,-1.968503937008D-1,6.496062992126D-2;               55P     47
110,-1.968503937008D-1,-1.968503937008D-1,7.283464566929D-2,          57P     48
-1.968503937008D-1,-1.968503937008D-1,6.496062992126D-2;              57P     49
110,-1.968503937008D-1,1.968503937008D-1,6.496062992126D-2,           59P     50
-1.968503937008D-1,-1.968503937008D-1,6.496062992126D-2;              59P     51
110,1.968503937008D-1,1.968503937008D-1,6.496062992126D-2,            61P     52
-1.968503937008D-1,1.968503937008D-1,6.496062992126D-2;               61P     53
110,1.968503937008D-1,-1.968503937008D-1,6.496062992126D-2,           63P     54
1.968503937008D-1,1.968503937008D-1,6.496062992126D-2;                63P     55
110,-1.968503937008D-1,-1.968503937008D-1,6.496062992126D-2,          65P     56
1.968503937008D-1,-1.968503937008D-1,6.496062992126D-2;               65P     57
502,16,-2.165354330709D-1,2.165354330709D-1,-7.283464566929D-2,       67P     58
-2.165354330709D-1,-2.165354330709D-1,-7.283464566929D-2,             67P     59
2.165354330709D-1,-2.165354330709D-1,-7.283464566929D-2,              67P     60
2.165354330709D-1,2.165354330709D-1,-7.283464566929D-2,               67P     61
-2.165354330709D-1,2.165354330709D-1,7.283464566929D-2,               67P     62
-2.165354330709D-1,-2.165354330709D-1,7.283464566929D-2,              67P     63
2.165354330709D-1,-2.165354330709D-1,7.283464566929D-2,               67P     64
2.165354330709D-1,2.165354330709D-1,7.283464566929D-2,                67P     65
-1.968503937008D-1,1.968503937008D-1,6.496062992126D-2,               67P     66
-1.968503937008D-1,-1.968503937008D-1,6.496062992126D-2,              67P     67
1.968503937008D-1,-1.968503937008D-1,6.496062992126D-2,               67P     68
1.968503937008D-1,1.968503937008D-1,6.496062992126D-2,                67P     69
-1.968503937008D-1,1.968503937008D-1,7.283464566929D-2,               67P     70
-1.968503937008D-1,-1.968503937008D-1,7.283464566929D-2,              67P     71
1.968503937008D-1,-1.968503937008D-1,7.283464566929D-2,               67P     72
1.968503937008D-1,1.968503937008D-1,7.283464566929D-2;                67P     73
504,24,19,67,1,67,2,21,67,2,67,3,23,67,3,67,4,25,67,4,67,1,35,        69P     74
67,5,67,6,41,67,6,67,7,39,67,7,67,8,37,67,8,67,5,27,67,1,67,5,        69P     75
33,67,2,67,6,31,67,3,67,7,29,67,4,67,8,59,67,9,67,10,65,67,10,        69P     76
67,11,63,67,11,67,12,61,67,12,67,9,43,67,13,67,14,45,67,14,67,        69P     77
15,47,67,15,67,16,49,67,16,67,13,51,67,13,67,9,57,67,14,67,10,        69P     78
55,67,15,67,11,53,67,16,67,12;                                        69P     79
128,1,1,1,1,0,0,1,0,0,-2.251968503937D-1,-2.251968503937D-1,          71P     80
2.251968503937D-1,2.251968503937D-1,-2.251968503937D-1,               71P     81
-2.251968503937D-1,2.251968503937D-1,2.251968503937D-1,1D0,1D0,       71P     82
1D0,1D0,-2.251968503937D-1,-2.251968503937D-1,                        71P     83
-7.283464566929D-2,2.251968503937D-1,-2.251968503937D-1,              71P     84
-7.283464566929D-2,-2.251968503937D-1,2.251968503937D-1,              71P     85
-7.283464566929D-2,2.251968503937D-1,2.251968503937D-1,               71P     86
-7.283464566929D-2,-2.251968503937D-1,2.251968503937D-1,              71P     87
-2.251968503937D-1,2.251968503937D-1;                                 71P     88
508,4,0,69,1,1,0,0,69,2,1,0,0,69,3,1,0,0,69,4,1,0;                    73P     89
510,71,1,0,73;                                                        75P     90
128,1,1,1,1,0,0,1,0,0,-8.661417322835D-3,-8.661417322835D-3,          77P     91
4.417322834646D-1,4.417322834646D-1,-2.913385826772D-3,               77P     92
-2.913385826772D-3,1.485826771654D-1,1.485826771654D-1,1D0,1D0,       77P     93
1D0,1D0,-2.165354330709D-1,2.251968503937D-1,-7.574803149606D-2,      77P     94
-2.165354330709D-1,-2.251968503937D-1,-7.574803149606D-2,             77P     95
-2.165354330709D-1,2.251968503937D-1,7.574803149606D-2,               77P     96
-2.165354330709D-1,-2.251968503937D-1,7.574803149606D-2,              77P     97
-8.661417322835D-3,4.417322834646D-1,-2.913385826772D-3,              77P     98
1.485826771654D-1;                                                    77P     99
508,4,0,69,1,0,0,0,69,9,1,0,0,69,5,1,0,0,69,10,0,0;                   79P    100
510,77,1,0,79;                                                        81P    101
128,1,1,1,1,0,0,1,0,0,-8.661417322835D-3,-8.661417322835D-3,          83P    102
4.417322834646D-1,4.417322834646D-1,-2.913385826772D-3,               83P    103
-2.913385826772D-3,1.485826771654D-1,1.485826771654D-1,1D0,1D0,       83P    104
1D0,1D0,2.251968503937D-1,2.165354330709D-1,-7.574803149606D-2,       83P    105
-2.251968503937D-1,2.165354330709D-1,-7.574803149606D-2,              83P    106
2.251968503937D-1,2.165354330709D-1,7.574803149606D-2,                83P    107
-2.251968503937D-1,2.165354330709D-1,7.574803149606D-2,               83P    108
-8.661417322835D-3,4.417322834646D-1,-2.913385826772D-3,              83P    109
1.485826771654D-1;                                                    83P    110
508,4,0,69,4,0,0,0,69,12,1,0,0,69,8,1,0,0,69,9,0,0;                   85P    111
510,83,1,0,85;                                                        87P    112
128,1,1,1,1,0,0,1,0,0,-8.661417322835D-3,-8.661417322835D-3,          89P    113
4.417322834646D-1,4.417322834646D-1,-2.913385826772D-3,               89P    114
-2.913385826772D-3,1.485826771654D-1,1.485826771654D-1,1D0,1D0,       89P    115
1D0,1D0,2.165354330709D-1,-2.251968503937D-1,-7.574803149606D-2,      89P    116
2.165354330709D-1,2.251968503937D-1,-7.574803149606D-2,               89P    117
2.165354330709D-1,-2.251968503937D-1,7.574803149606D-2,               89P    118
2.165354330709D-1,2.251968503937D-1,7.574803149606D-2,                89P    119
-8.661417322835D-3,4.417322834646D-1,-2.913385826772D-3,              89P    120
1.485826771654D-1;                                                    89P    121
508,4,0,69,3,0,0,0,69,11,1,0,0,69,7,1,0,0,69,12,0,0;                  91P    122
510,89,1,0,91;                                                        93P    123
128,1,1,1,1,0,0,1,0,0,-8.661417322835D-3,-8.661417322835D-3,          95P    124
4.417322834646D-1,4.417322834646D-1,-2.913385826772D-3,               95P    125
-2.913385826772D-3,1.485826771654D-1,1.485826771654D-1,1D0,1D0,       95P    126
1D0,1D0,-2.251968503937D-1,-2.165354330709D-1,                        95P    127
-7.574803149606D-2,2.251968503937D-1,-2.165354330709D-1,              95P    128
-7.574803149606D-2,-2.251968503937D-1,-2.165354330709D-1,             95P    129
7.574803149606D-2,2.251968503937D-1,-2.165354330709D-1,               95P    130
7.574803149606D-2,-8.661417322835D-3,4.417322834646D-1,               95P    131
-2.913385826772D-3,1.485826771654D-1;                                 95P    132
508,4,0,69,2,0,0,0,69,10,1,0,0,69,6,1,0,0,69,11,0,0;                  97P    133
510,95,1,0,97;                                                        99P    134
128,1,1,1,1,0,0,1,0,0,-2.251968503937D-1,-2.251968503937D-1,         101P    135
2.251968503937D-1,2.251968503937D-1,-2.251968503937D-1,              101P    136
-2.251968503937D-1,2.251968503937D-1,2.251968503937D-1,1D0,1D0,      101P    137
1D0,1D0,-2.251968503937D-1,-2.251968503937D-1,7.283464566929D-2,     101P    138
2.251968503937D-1,-2.251968503937D-1,7.283464566929D-2,              101P    139
-2.251968503937D-1,2.251968503937D-1,7.283464566929D-2,              101P    140
2.251968503937D-1,2.251968503937D-1,7.283464566929D-2,               101P    141
-2.251968503937D-1,2.251968503937D-1,-2.251968503937D-1,             101P    142
2.251968503937D-1;                                                   101P    143
508,4,0,69,5,0,0,0,69,8,0,0,0,69,7,0,0,0,69,6,0,0;                   103P    144
508,4,0,69,17,1,0,0,69,18,1,0,0,69,19,1,0,0,69,20,1,0;               105P    145
510,101,2,0,103,105;                                                 107P    146
128,1,1,1,1,0,0,1,0,0,-7.874015748031D-3,-7.874015748031D-3,         109P    147
4.015748031496D-1,4.015748031496D-1,-8.682455941955D-3,              109P    148
-8.682455941955D-3,8.084401939235D-4,8.084401939235D-4,1D0,1D0,      109P    149
1D0,1D0,-1.968503937008D-1,2.047244094488D-1,6.415218972734D-2,      109P    150
-1.968503937008D-1,-2.047244094488D-1,6.415218972734D-2,             109P    151
-1.968503937008D-1,2.047244094488D-1,7.364308586321D-2,              109P    152
-1.968503937008D-1,-2.047244094488D-1,7.364308586321D-2,             109P    153
-7.874015748031D-3,4.015748031496D-1,-8.682455941955D-3,             109P    154
8.084401939235D-4;                                                   109P    155
508,4,0,69,17,0,0,0,69,21,1,0,0,69,13,1,0,0,69,22,0,0;               111P    156
510,109,1,0,111;                                                     113P    157
128,1,1,1,1,0,0,1,0,0,-7.874015748031D-3,-7.874015748031D-3,         115P    158
4.015748031496D-1,4.015748031496D-1,-8.682455941955D-3,              115P    159
-8.682455941955D-3,8.084401939235D-4,8.084401939235D-4,1D0,1D0,      115P    160
1D0,1D0,2.047244094488D-1,1.968503937008D-1,6.415218972734D-2,       115P    161
-2.047244094488D-1,1.968503937008D-1,6.415218972734D-2,              115P    162
2.047244094488D-1,1.968503937008D-1,7.364308586321D-2,               115P    163
-2.047244094488D-1,1.968503937008D-1,7.364308586321D-2,              115P    164
-7.874015748031D-3,4.015748031496D-1,-8.682455941955D-3,             115P    165
8.084401939235D-4;                                                   115P    166
508,4,0,69,20,0,0,0,69,24,1,0,0,69,16,1,0,0,69,21,0,0;               117P    167
510,115,1,0,117;                                                     119P    168
128,1,1,1,1,0,0,1,0,0,-7.874015748031D-3,-7.874015748031D-3,         121P    169
4.015748031496D-1,4.015748031496D-1,-8.682455941955D-3,              121P    170
-8.682455941955D-3,8.084401939235D-4,8.084401939235D-4,1D0,1D0,      121P    171
1D0,1D0,1.968503937008D-1,-2.047244094488D-1,6.415218972734D-2,      121P    172
1.968503937008D-1,2.047244094488D-1,6.415218972734D-2,               121P    173
1.968503937008D-1,-2.047244094488D-1,7.364308586321D-2,              121P    174
1.968503937008D-1,2.047244094488D-1,7.364308586321D-2,               121P    175
-7.874015748031D-3,4.015748031496D-1,-8.682455941955D-3,             121P    176
8.084401939235D-4;                                                   121P    177
508,4,0,69,19,0,0,0,69,23,1,0,0,69,15,1,0,0,69,24,0,0;               123P    178
510,121,1,0,123;                                                     125P    179
128,1,1,1,1,0,0,1,0,0,-7.874015748031D-3,-7.874015748031D-3,         127P    180
4.015748031496D-1,4.015748031496D-1,-8.682455941955D-3,              127P    181
-8.682455941955D-3,8.084401939235D-4,8.084401939235D-4,1D0,1D0,      127P    182
1D0,1D0,-2.047244094488D-1,-1.968503937008D-1,6.415218972734D-2,     127P    183
2.047244094488D-1,-1.968503937008D-1,6.415218972734D-2,              127P    184
-2.047244094488D-1,-1.968503937008D-1,7.364308586321D-2,             127P    185
2.047244094488D-1,-1.968503937008D-1,7.364308586321D-2,              127P    186
-7.874015748031D-3,4.015748031496D-1,-8.682455941955D-3,             127P    187
8.084401939235D-4;                                                   127P    188
508,4,0,69,18,0,0,0,69,22,1,0,0,69,14,1,0,0,69,23,0,0;               129P    189
510,127,1,0,129;                                                     131P    190
128,1,1,1,1,0,0,1,0,0,-2.047244094488D-1,-2.047244094488D-1,         133P    191
2.047244094488D-1,2.047244094488D-1,-2.047244094488D-1,              133P    192
-2.047244094488D-1,2.047244094488D-1,2.047244094488D-1,1D0,1D0,      133P    193
1D0,1D0,-2.047244094488D-1,-2.047244094488D-1,6.496062992126D-2,     133P    194
2.047244094488D-1,-2.047244094488D-1,6.496062992126D-2,              133P    195
-2.047244094488D-1,2.047244094488D-1,6.496062992126D-2,              133P    196
2.047244094488D-1,2.047244094488D-1,6.496062992126D-2,               133P    197
-2.047244094488D-1,2.047244094488D-1,-2.047244094488D-1,             133P    198
2.047244094488D-1;                                                   133P    199
508,4,0,69,13,0,0,0,69,16,0,0,0,69,15,0,0,0,69,14,0,0;               135P    200
510,133,1,0,135;                                                     137P    201
514,11,75,0,81,1,87,1,93,1,99,1,107,1,113,0,119,0,125,0,131,0,       139P    202
137,1;                                                               139P    203
186,139,1,0;                                                         141P    204
S      1G      4D    142P    204                                        T      1
