 PTC IGES file: 156805.igs                                              S      1
1H,,1H;,9H156805_SW,10H156805.igs,                                      G      1
49HPro/ENGINEER by Parametric Technology Corporation,7H2009141,32,38,7, G      2
38,15,9H156805_SW,1.,1,4HINCH,32768,0.5,15H20111006.110148,0.000489204, G      3
4.89224,13Hbanengservice,7HUnknown,10,0,15H20111006.110148;             G      4
     314       1       1       1       0       0       0       001000200D      1
     314       0       4       1       0                   COLOR       1D      2
     314       2       1       1       0       0       0       001000200D      3
     314       0       1       1       0                   COLOR       2D      4
     314       3       1       1       0       0       0       001000200D      5
     314       0       1       1       0                   COLOR       3D      6
     314       4       1       1       0       0       0       001000200D      7
     314       0       1       1       0                   COLOR       4D      8
     314       5       1       1       0       0       0       001000200D      9
     314       0       8       1       0                   COLOR       5D     10
     314       6       1       1       0       0       0       001000200D     11
     314       0       8       1       0                   COLOR       6D     12
     314       7       1       1       0       0       0       001000200D     13
     314       0       5       1       0                   COLOR       7D     14
     314       8       1       1       0       0       0       001000200D     15
     314       0       8       1       0                   COLOR       8D     16
     110       9       1       1       0       0       0       001010000D     17
     110       0       0       2       0                    LINE       1D     18
     110      11       1       1       0       0       0       001010000D     19
     110       0       0       2       0                    LINE       2D     20
     110      13       1       1       0       0       0       001010000D     21
     110       0       0       2       0                    LINE       3D     22
     110      15       1       1       0       0       0       001010000D     23
     110       0       0       2       0                    LINE       4D     24
     110      17       1       1       0       0       0       001010000D     25
     110       0       0       2       0                    LINE       5D     26
     110      19       1       1       0       0       0       001010000D     27
     110       0       0       2       0                    LINE       6D     28
     110      21       1       1       0       0       0       001010000D     29
     110       0       0       2       0                    LINE       7D     30
     110      23       1       1       0       0       0       001010000D     31
     110       0       0       2       0                    LINE       8D     32
     110      25       1       1       0       0       0       001010000D     33
     110       0       0       2       0                    LINE       9D     34
     110      27       1       1       0       0       0       001010000D     35
     110       0       0       2       0                    LINE      10D     36
     110      29       1       1       0       0       0       001010000D     37
     110       0       0       2       0                    LINE      11D     38
     110      31       1       1       0       0       0       001010000D     39
     110       0       0       2       0                    LINE      12D     40
     110      33       1       1       0       0       0       001010000D     41
     110       0       0       2       0                    LINE      13D     42
     110      35       1       1       0       0       0       001010000D     43
     110       0       0       2       0                    LINE      14D     44
     110      37       1       1       0       0       0       001010000D     45
     110       0       0       2       0                    LINE      15D     46
     110      39       1       1       0       0       0       001010000D     47
     110       0       0       2       0                    LINE      16D     48
     110      41       1       1       0       0       0       001010000D     49
     110       0       0       2       0                    LINE      17D     50
     110      43       1       1       0       0       0       001010000D     51
     110       0       0       2       0                    LINE      18D     52
     110      45       1       1       0       0       0       001010000D     53
     110       0       0       2       0                    LINE      19D     54
     110      47       1       1       0       0       0       001010000D     55
     110       0       0       2       0                    LINE      20D     56
     110      49       1       1       0       0       0       001010000D     57
     110       0       0       2       0                    LINE      21D     58
     110      51       1       1       0       0       0       001010000D     59
     110       0       0       2       0                    LINE      22D     60
     110      53       1       1       0       0       0       001010000D     61
     110       0       0       2       0                    LINE      23D     62
     110      55       1       1       0       0       0       001010000D     63
     110       0       0       2       0                    LINE      24D     64
     502      57       1       1       0       0       0       001010000D     65
     502       0       0      15       1                  VERTEX       1D     66
     504      72       1       1       0       0       0       000010001D     67
     504       0       0       6       1                    EDGE       1D     68
     128      78       1       1       0       0       0       001010000D     69
     128       0       0       7       0                  SPLSRF       1D     70
     508      85       1       1       0       0       0       001010000D     71
     508       0       0       1       1                EDGELOOP       1D     72
     510      86       1       1       0       0       0       000010000D     73
     510       0       0       1       1                    FACE       1D     74
     128      87       1       1       0       0       0       001010000D     75
     128       0       0       9       0                  SPLSRF       2D     76
     508      96       1       1       0       0       0       001010000D     77
     508       0       0       1       1                EDGELOOP       2D     78
     510      97       1       1       0       0       0       000010000D     79
     510       0       0       1       1                    FACE       2D     80
     128      98       1       1       0       0       0       001010000D     81
     128       0       0       9       0                  SPLSRF       3D     82
     508     107       1       1       0       0       0       001010000D     83
     508       0       0       1       1                EDGELOOP       3D     84
     510     108       1       1       0       0       0       000010000D     85
     510       0       0       1       1                    FACE       3D     86
     128     109       1       1       0       0       0       001010000D     87
     128       0       0       9       0                  SPLSRF       4D     88
     508     118       1       1       0       0       0       001010000D     89
     508       0       0       1       1                EDGELOOP       4D     90
     510     119       1       1       0       0       0       000010000D     91
     510       0       0       1       1                    FACE       4D     92
     128     120       1       1       0       0       0       001010000D     93
     128       0       0       9       0                  SPLSRF       5D     94
     508     129       1       1       0       0       0       001010000D     95
     508       0       0       1       1                EDGELOOP       5D     96
     510     130       1       1       0       0       0       000010000D     97
     510       0       0       1       1                    FACE       5D     98
     128     131       1       1       0       0       0       001010000D     99
     128       0       0       9       0                  SPLSRF       6D    100
     508     140       1       1       0       0       0       001010000D    101
     508       0       0       1       1                EDGELOOP       6D    102
     508     141       1       1       0       0       0       001010000D    103
     508       0       0       1       1                EDGELOOP       7D    104
     510     142       1       1       0       0       0       000010000D    105
     510       0       0       1       1                    FACE       6D    106
     128     143       1       1       0       0       0       001010000D    107
     128       0       0       9       0                  SPLSRF       7D    108
     508     152       1       1       0       0       0       001010000D    109
     508       0       0       1       1                EDGELOOP       8D    110
     510     153       1       1       0       0       0       000010000D    111
     510       0       0       1       1                    FACE       7D    112
     128     154       1       1       0       0       0       001010000D    113
     128       0       0       9       0                  SPLSRF       8D    114
     508     163       1       1       0       0       0       001010000D    115
     508       0       0       1       1                EDGELOOP       9D    116
     510     164       1       1       0       0       0       000010000D    117
     510       0       0       1       1                    FACE       8D    118
     128     165       1       1       0       0       0       001010000D    119
     128       0       0       9       0                  SPLSRF       9D    120
     508     174       1       1       0       0       0       001010000D    121
     508       0       0       1       1                EDGELOOP      10D    122
     510     175       1       1       0       0       0       000010000D    123
     510       0       0       1       1                    FACE       9D    124
     128     176       1       1       0       0       0       001010000D    125
     128       0       0       9       0                  SPLSRF      10D    126
     508     185       1       1       0       0       0       001010000D    127
     508       0       0       1       1                EDGELOOP      11D    128
     510     186       1       1       0       0       0       000010000D    129
     510       0       0       1       1                    FACE      10D    130
     128     187       1       1       0       0       0       001010000D    131
     128       0       8       9       0                  SPLSRF      11D    132
     508     196       1       1       0       0       0       001010000D    133
     508       0       0       1       1                EDGELOOP      12D    134
     510     197       1       1       0       0       0       000010000D    135
     510       0       8       1       1                    FACE      11D    136
     514     198       1       1       0       0       0       000010000D    137
     514       0       0       2       1                   SHELL       1D    138
     186     200       1       1       0       0       0       000000000D    139
     186       0       0       1       0                    MSBR       1D    140
314,1.1D0,1.2D0,1D2;                                                   1P      1
314,1.1D1,1.1D1,1.1D1;                                                 3P      2
314,3.92D1,1.2D0,1.2D0;                                                5P      3
314,4.1D1,0D0,2.2D1;                                                   7P      4
314,8.784D1,9.49D1,1D2;                                                9P      5
314,9.6D1,9.6D1,9.6D1;                                                11P      6
314,9.8D1,6.27D1,0D0;                                                 13P      7
314,1D2,1D2,9.49D1;                                                   15P      8
110,-9.960629921260D-1,1.988188976378D0,0D0,-9.960629921260D-1,       17P      9
-1.988188976378D0,0D0;                                                17P     10
110,-9.960629921260D-1,-1.988188976378D0,0D0,9.960629921260D-1,       19P     11
-1.988188976378D0,0D0;                                                19P     12
110,9.960629921260D-1,-1.988188976378D0,0D0,9.960629921260D-1,        21P     13
1.988188976378D0,0D0;                                                 21P     14
110,9.960629921260D-1,1.988188976378D0,0D0,-9.960629921260D-1,        23P     15
1.988188976378D0,0D0;                                                 23P     16
110,-9.960629921260D-1,1.988188976378D0,0D0,-9.960629921260D-1,       25P     17
1.988188976378D0,3.149606299213D-1;                                   25P     18
110,9.960629921260D-1,1.988188976378D0,0D0,9.960629921260D-1,         27P     19
1.988188976378D0,3.149606299213D-1;                                   27P     20
110,9.960629921260D-1,-1.988188976378D0,0D0,9.960629921260D-1,        29P     21
-1.988188976378D0,3.149606299213D-1;                                  29P     22
110,-9.960629921260D-1,-1.988188976378D0,0D0,-9.960629921260D-1,      31P     23
-1.988188976378D0,3.149606299213D-1;                                  31P     24
110,-9.960629921260D-1,1.988188976378D0,3.149606299213D-1,            33P     25
-9.960629921260D-1,-1.988188976378D0,3.149606299213D-1;               33P     26
110,9.960629921260D-1,1.988188976378D0,3.149606299213D-1,             35P     27
-9.960629921260D-1,1.988188976378D0,3.149606299213D-1;                35P     28
110,9.960629921260D-1,-1.988188976378D0,3.149606299213D-1,            37P     29
9.960629921260D-1,1.988188976378D0,3.149606299213D-1;                 37P     30
110,-9.960629921260D-1,-1.988188976378D0,3.149606299213D-1,           39P     31
9.960629921260D-1,-1.988188976378D0,3.149606299213D-1;                39P     32
110,-9.665354330709D-1,1.958661417323D0,3.149606299213D-1,            41P     33
-9.665354330709D-1,-1.958661417323D0,3.149606299213D-1;               41P     34
110,-9.665354330709D-1,-1.958661417323D0,3.149606299213D-1,           43P     35
9.665354330709D-1,-1.958661417323D0,3.149606299213D-1;                43P     36
110,9.665354330709D-1,-1.958661417323D0,3.149606299213D-1,            45P     37
9.665354330709D-1,1.958661417323D0,3.149606299213D-1;                 45P     38
110,9.665354330709D-1,1.958661417323D0,3.149606299213D-1,             47P     39
-9.665354330709D-1,1.958661417323D0,3.149606299213D-1;                47P     40
110,-9.665354330709D-1,1.958661417323D0,3.149606299213D-1,            49P     41
-9.665354330709D-1,1.958661417323D0,3.051181102362D-1;                49P     42
110,9.665354330709D-1,1.958661417323D0,3.149606299213D-1,             51P     43
9.665354330709D-1,1.958661417323D0,3.051181102362D-1;                 51P     44
110,9.665354330709D-1,-1.958661417323D0,3.149606299213D-1,            53P     45
9.665354330709D-1,-1.958661417323D0,3.051181102362D-1;                53P     46
110,-9.665354330709D-1,-1.958661417323D0,3.149606299213D-1,           55P     47
-9.665354330709D-1,-1.958661417323D0,3.051181102362D-1;               55P     48
110,-9.665354330709D-1,1.958661417323D0,3.051181102362D-1,            57P     49
-9.665354330709D-1,-1.958661417323D0,3.051181102362D-1;               57P     50
110,9.665354330709D-1,1.958661417323D0,3.051181102362D-1,             59P     51
-9.665354330709D-1,1.958661417323D0,3.051181102362D-1;                59P     52
110,9.665354330709D-1,-1.958661417323D0,3.051181102362D-1,            61P     53
9.665354330709D-1,1.958661417323D0,3.051181102362D-1;                 61P     54
110,-9.665354330709D-1,-1.958661417323D0,3.051181102362D-1,           63P     55
9.665354330709D-1,-1.958661417323D0,3.051181102362D-1;                63P     56
502,16,-9.960629921260D-1,1.988188976378D0,0D0,                       65P     57
-9.960629921260D-1,-1.988188976378D0,0D0,9.960629921260D-1,           65P     58
-1.988188976378D0,0D0,9.960629921260D-1,1.988188976378D0,0D0,         65P     59
-9.960629921260D-1,1.988188976378D0,3.149606299213D-1,                65P     60
-9.960629921260D-1,-1.988188976378D0,3.149606299213D-1,               65P     61
9.960629921260D-1,-1.988188976378D0,3.149606299213D-1,                65P     62
9.960629921260D-1,1.988188976378D0,3.149606299213D-1,                 65P     63
-9.665354330709D-1,1.958661417323D0,3.051181102362D-1,                65P     64
-9.665354330709D-1,-1.958661417323D0,3.051181102362D-1,               65P     65
9.665354330709D-1,-1.958661417323D0,3.051181102362D-1,                65P     66
9.665354330709D-1,1.958661417323D0,3.051181102362D-1,                 65P     67
-9.665354330709D-1,1.958661417323D0,3.149606299213D-1,                65P     68
-9.665354330709D-1,-1.958661417323D0,3.149606299213D-1,               65P     69
9.665354330709D-1,-1.958661417323D0,3.149606299213D-1,                65P     70
9.665354330709D-1,1.958661417323D0,3.149606299213D-1;                 65P     71
504,24,17,65,1,65,2,19,65,2,65,3,21,65,3,65,4,23,65,4,65,1,33,        67P     72
65,5,65,6,39,65,6,65,7,37,65,7,65,8,35,65,8,65,5,25,65,1,65,5,        67P     73
31,65,2,65,6,29,65,3,65,7,27,65,4,65,8,57,65,9,65,10,63,65,10,        67P     74
65,11,61,65,11,65,12,59,65,12,65,9,41,65,13,65,14,43,65,14,65,        67P     75
15,45,65,15,65,16,47,65,16,65,13,49,65,13,65,9,55,65,14,65,10,        67P     76
53,65,15,65,11,51,65,16,65,12;                                        67P     77
128,1,1,1,1,0,0,1,0,0,-1.035905511811D0,-1.035905511811D0,            69P     78
1.035905511811D0,1.035905511811D0,-2.067716535433D0,                  69P     79
-2.067716535433D0,2.067716535433D0,2.067716535433D0,1D0,1D0,1D0,      69P     80
1D0,-1.035905511811D0,-2.067716535433D0,0D0,1.035905511811D0,         69P     81
-2.067716535433D0,0D0,-1.035905511811D0,2.067716535433D0,0D0,         69P     82
1.035905511811D0,2.067716535433D0,0D0,-1.035905511811D0,              69P     83
1.035905511811D0,-2.067716535433D0,2.067716535433D0;                  69P     84
508,4,0,67,1,1,0,0,67,2,1,0,0,67,3,1,0,0,67,4,1,0;                    71P     85
510,69,1,0,71;                                                        73P     86
128,1,1,1,1,0,0,1,0,0,-7.952755905512D-2,-7.952755905512D-2,          75P     87
4.055905511811D0,4.055905511811D0,-6.299212598425D-3,                 75P     88
-6.299212598425D-3,3.212598425197D-1,3.212598425197D-1,1D0,1D0,       75P     89
1D0,1D0,-9.960629921260D-1,2.067716535433D0,-6.299212598425D-3,       75P     90
-9.960629921260D-1,-2.067716535433D0,-6.299212598425D-3,              75P     91
-9.960629921260D-1,2.067716535433D0,3.212598425197D-1,                75P     92
-9.960629921260D-1,-2.067716535433D0,3.212598425197D-1,               75P     93
-7.952755905512D-2,4.055905511811D0,-6.299212598425D-3,               75P     94
3.212598425197D-1;                                                    75P     95
508,4,0,67,1,0,0,0,67,9,1,0,0,67,5,1,0,0,67,10,0,0;                   77P     96
510,75,1,0,77;                                                        79P     97
128,1,1,1,1,0,0,1,0,0,-3.984251968504D-2,-3.984251968504D-2,          81P     98
2.031968503937D0,2.031968503937D0,-6.299212598425D-3,                 81P     99
-6.299212598425D-3,3.212598425197D-1,3.212598425197D-1,1D0,1D0,       81P    100
1D0,1D0,1.035905511811D0,1.988188976378D0,-6.299212598425D-3,         81P    101
-1.035905511811D0,1.988188976378D0,-6.299212598425D-3,                81P    102
1.035905511811D0,1.988188976378D0,3.212598425197D-1,                  81P    103
-1.035905511811D0,1.988188976378D0,3.212598425197D-1,                 81P    104
-3.984251968504D-2,2.031968503937D0,-6.299212598425D-3,               81P    105
3.212598425197D-1;                                                    81P    106
508,4,0,67,4,0,0,0,67,12,1,0,0,67,8,1,0,0,67,9,0,0;                   83P    107
510,81,1,0,83;                                                        85P    108
128,1,1,1,1,0,0,1,0,0,-7.952755905512D-2,-7.952755905512D-2,          87P    109
4.055905511811D0,4.055905511811D0,-6.299212598425D-3,                 87P    110
-6.299212598425D-3,3.212598425197D-1,3.212598425197D-1,1D0,1D0,       87P    111
1D0,1D0,9.960629921260D-1,-2.067716535433D0,-6.299212598425D-3,       87P    112
9.960629921260D-1,2.067716535433D0,-6.299212598425D-3,                87P    113
9.960629921260D-1,-2.067716535433D0,3.212598425197D-1,                87P    114
9.960629921260D-1,2.067716535433D0,3.212598425197D-1,                 87P    115
-7.952755905512D-2,4.055905511811D0,-6.299212598425D-3,               87P    116
3.212598425197D-1;                                                    87P    117
508,4,0,67,3,0,0,0,67,11,1,0,0,67,7,1,0,0,67,12,0,0;                  89P    118
510,87,1,0,89;                                                        91P    119
128,1,1,1,1,0,0,1,0,0,-3.984251968504D-2,-3.984251968504D-2,          93P    120
2.031968503937D0,2.031968503937D0,-6.299212598425D-3,                 93P    121
-6.299212598425D-3,3.212598425197D-1,3.212598425197D-1,1D0,1D0,       93P    122
1D0,1D0,-1.035905511811D0,-1.988188976378D0,-6.299212598425D-3,       93P    123
1.035905511811D0,-1.988188976378D0,-6.299212598425D-3,                93P    124
-1.035905511811D0,-1.988188976378D0,3.212598425197D-1,                93P    125
1.035905511811D0,-1.988188976378D0,3.212598425197D-1,                 93P    126
-3.984251968504D-2,2.031968503937D0,-6.299212598425D-3,               93P    127
3.212598425197D-1;                                                    93P    128
508,4,0,67,2,0,0,0,67,10,1,0,0,67,6,1,0,0,67,11,0,0;                  95P    129
510,93,1,0,95;                                                        97P    130
128,1,1,1,1,0,0,1,0,0,-1.035905511811D0,-1.035905511811D0,            99P    131
1.035905511811D0,1.035905511811D0,-2.067716535433D0,                  99P    132
-2.067716535433D0,2.067716535433D0,2.067716535433D0,1D0,1D0,1D0,      99P    133
1D0,-1.035905511811D0,-2.067716535433D0,3.149606299213D-1,            99P    134
1.035905511811D0,-2.067716535433D0,3.149606299213D-1,                 99P    135
-1.035905511811D0,2.067716535433D0,3.149606299213D-1,                 99P    136
1.035905511811D0,2.067716535433D0,3.149606299213D-1,                  99P    137
-1.035905511811D0,1.035905511811D0,-2.067716535433D0,                 99P    138
2.067716535433D0;                                                     99P    139
508,4,0,67,5,0,0,0,67,8,0,0,0,67,7,0,0,0,67,6,0,0;                   101P    140
508,4,0,67,17,1,0,0,67,18,1,0,0,67,19,1,0,0,67,20,1,0;               103P    141
510,99,2,0,101,103;                                                  105P    142
128,1,1,1,1,0,0,1,0,0,-7.834645669291D-2,-7.834645669291D-2,         107P    143
3.995669291339D0,3.995669291339D0,-1.571320355568D-2,                107P    144
-1.571320355568D-2,5.870683870646D-3,5.870683870646D-3,1D0,1D0,      107P    145
1D0,1D0,-9.665354330709D-1,2.037007874016D0,2.992474263656D-1,       107P    146
-9.665354330709D-1,-2.037007874016D0,2.992474263656D-1,              107P    147
-9.665354330709D-1,2.037007874016D0,3.208313137919D-1,               107P    148
-9.665354330709D-1,-2.037007874016D0,3.208313137919D-1,              107P    149
-7.834645669291D-2,3.995669291339D0,-1.571320355568D-2,              107P    150
5.870683870646D-3;                                                   107P    151
508,4,0,67,17,0,0,0,67,21,1,0,0,67,13,1,0,0,67,22,0,0;               109P    152
510,107,1,0,109;                                                     111P    153
128,1,1,1,1,0,0,1,0,0,-3.866141732283D-2,-3.866141732283D-2,         113P    154
1.971732283465D0,1.971732283465D0,-1.571320355568D-2,                113P    155
-1.571320355568D-2,5.870683870646D-3,5.870683870646D-3,1D0,1D0,      113P    156
1D0,1D0,1.005196850394D0,1.958661417323D0,2.992474263656D-1,         113P    157
-1.005196850394D0,1.958661417323D0,2.992474263656D-1,                113P    158
1.005196850394D0,1.958661417323D0,3.208313137919D-1,                 113P    159
-1.005196850394D0,1.958661417323D0,3.208313137919D-1,                113P    160
-3.866141732283D-2,1.971732283465D0,-1.571320355568D-2,              113P    161
5.870683870646D-3;                                                   113P    162
508,4,0,67,20,0,0,0,67,24,1,0,0,67,16,1,0,0,67,21,0,0;               115P    163
510,113,1,0,115;                                                     117P    164
128,1,1,1,1,0,0,1,0,0,-7.834645669291D-2,-7.834645669291D-2,         119P    165
3.995669291339D0,3.995669291339D0,-1.571320355568D-2,                119P    166
-1.571320355568D-2,5.870683870646D-3,5.870683870646D-3,1D0,1D0,      119P    167
1D0,1D0,9.665354330709D-1,-2.037007874016D0,2.992474263656D-1,       119P    168
9.665354330709D-1,2.037007874016D0,2.992474263656D-1,                119P    169
9.665354330709D-1,-2.037007874016D0,3.208313137919D-1,               119P    170
9.665354330709D-1,2.037007874016D0,3.208313137919D-1,                119P    171
-7.834645669291D-2,3.995669291339D0,-1.571320355568D-2,              119P    172
5.870683870646D-3;                                                   119P    173
508,4,0,67,19,0,0,0,67,23,1,0,0,67,15,1,0,0,67,24,0,0;               121P    174
510,119,1,0,121;                                                     123P    175
128,1,1,1,1,0,0,1,0,0,-3.866141732283D-2,-3.866141732283D-2,         125P    176
1.971732283465D0,1.971732283465D0,-1.571320355568D-2,                125P    177
-1.571320355568D-2,5.870683870646D-3,5.870683870646D-3,1D0,1D0,      125P    178
1D0,1D0,-1.005196850394D0,-1.958661417323D0,2.992474263656D-1,       125P    179
1.005196850394D0,-1.958661417323D0,2.992474263656D-1,                125P    180
-1.005196850394D0,-1.958661417323D0,3.208313137919D-1,               125P    181
1.005196850394D0,-1.958661417323D0,3.208313137919D-1,                125P    182
-3.866141732283D-2,1.971732283465D0,-1.571320355568D-2,              125P    183
5.870683870646D-3;                                                   125P    184
508,4,0,67,18,0,0,0,67,22,1,0,0,67,14,1,0,0,67,23,0,0;               127P    185
510,125,1,0,127;                                                     129P    186
128,1,1,1,1,0,0,1,0,0,-1.005196850394D0,-1.005196850394D0,           131P    187
1.005196850394D0,1.005196850394D0,-2.037007874016D0,                 131P    188
-2.037007874016D0,2.037007874016D0,2.037007874016D0,1D0,1D0,1D0,     131P    189
1D0,-1.005196850394D0,-2.037007874016D0,3.051181102362D-1,           131P    190
1.005196850394D0,-2.037007874016D0,3.051181102362D-1,                131P    191
-1.005196850394D0,2.037007874016D0,3.051181102362D-1,                131P    192
1.005196850394D0,2.037007874016D0,3.051181102362D-1,                 131P    193
-1.005196850394D0,1.005196850394D0,-2.037007874016D0,                131P    194
2.037007874016D0;                                                    131P    195
508,4,0,67,13,0,0,0,67,16,0,0,0,67,15,0,0,0,67,14,0,0;               133P    196
510,131,1,0,133;                                                     135P    197
514,11,73,0,79,1,85,1,91,1,97,1,105,1,111,0,117,0,123,0,129,0,       137P    198
135,1;                                                               137P    199
186,137,1,0;                                                         139P    200
S      1G      4D    140P    200                                        T      1
